Misc. Unsigned Bands - Pegasus Bridge - Ribena Acoustic Text Guitar Tab

Learn the song with the online tablature player
Ribena (Acoustic)

                                 Pegasus Bridge

     verse

E||------------------------|-----------------------|-----------|
B||--8-----12----7----3----|-----5----5---5--------|-----------|
G||--9----------------4----|-----------------------|-----------|
D||--------12----7---------|-----5----5---5--------|-----------|
A||--7-----10----5----2----|-----3----3---3--------|-----------|
E||------------------------|-----------------------|-----------|

  Chorus

-------------------|-------------------|-------------------|
--5----------------|--7----------------|--8----------------|
-------------------|-------------------|-------------------|
--5----------------|--7----------------|--9----------------|
--3----------------|--5----------------|--7----------------|
-------------------|-------------------|-------------------|

--------------------|-------------------|-------------------|
--12----------------|-------------------|-------------------|
--------------------|-------------------|-------------------|
--12----------------|-------------------|-------------------|
--10----------------|-------------------|-------------------|
--------------------|-------------------|-------------------|

-------------------|-------------------|-------------------|
-------------------|-------------------|-------------------|
-------------------|-------------------|-------------------|
-------------------|-------------------|-------------------|
-------------------|-------------------|-------------------|
-------------------|-------------------|-------------------|

   Middle bit 1:30

--10----------------|--------------------|----------------------|
---8----------------|--10----------------|--12--------10--------|
--------------------|--11----------------|--12--------11--------|
---9----------------|--12----------------|--14--------12--------|
---7----------------|--------------------|----------------------|
--------------------|--------------------|----------------------|

-------------------||
--8----------------||
-------------------||
--9----------------||
--7----------------||
-------------------||