Misc. Unsigned Bands - Pegasus Bridge - Skinny Text Guitar Tab

Learn the song with the online tablature player
                             Skinny - Pegasus Bridge

I session guitar for him

Anyway -

Verse 1

I am skinny, and I am faithful to the last

e|---------------------------------------------------------------------------|
B|---------------------------------------------------------------------------|
G|---------------------------------------------------------------------------|
D|---------------------------------------------------------------------------|
A|-12-12-12-12-12-12-12-12-12-12-12-12-12-12-12-12-12-12-12-12-12-12-12-12---|
E|---------------------------------------------------------------------------|

But I'll play games with you like a hormone in a high school class.

e|---------------------------------------------------------------------------|
B|---------------------------------------------------------------------------|
G|---------------------------------------------------------------------------|
D|---------------------------------------------------------------------------|
A|-12-12-12-12-12-12-12-12-12-12-12-12-12-12-12-12-12-12-12-12-12-12-12-12---|
E|---------------------------------------------------------------------------|

And I can be thoughtful, I can be awful when i want to be...

e|---------------------------------------------------------------------------|
B|---------------------------------------------------------------------------|
G|---------------------------------------------------------------------------|
D|---------------------------------------------------------------------------|
A|-12-12-12-12-12-9-9-9-9-9-9-9-9-7-7-7-7-7-7-7-5-5-5-5-5-5-5-5-5-5-5--------|
E|---------------------------------------------------------------------------|

You said if we never grow up, then we'll never grow old...

e|---------------------------------------------------------------------------|
B|---------------------------------------------------------------------------|
G|---------------------------------------------------------------------------|
D|-12-12-12-12-9-9-9-9-9-9-9-9-5-5-5-5-5-5-5-5-------------------------------|
A|---------------------------------------------------------------------------|
E|---------------------------------------------------------------------------|

You are slender, oh so slender,
And I like it
Skinny like a model, but with a little something extra in her eyes

e|---------------------------------------------------------------------------|
B|---------------------------------------------------------------------------|
G|---------------------------------------------------------------------------|
D|---------------------------------------------------------------------------|
A|-12-12-12-12-12-12-12-12-12-12-12-12-12-12-12-12-12-12-12-12-12-12-12-12---|
E|---------------------------------------------------------------------------|

and I've got some time to kill, if you're free and you're willing

e|------------------------------------------------------------------------------|
B|------------------------------------------------------------------------------|
G|------------------------------------------------------------------------------|
D|-14--14--(14)-----------14-11-------11----------------------------------------|
A|-12--11--(9)-----9-9-9------- -9-9-9-----14-----------------------------------|
E|------------------------------------------------------------------------------|

But if you never show up, then you'll never know.

e|---------------------------------------------------------------------------|
B|---------------------------------------------------------------------------|
G|---------------------------------------------------------------------------|
D|-14--14--14----------------------------------------------------------------|
A|-12--11--9-----------------------------------------------------------------|
E|---------------------------------------------------------------------------|

That i want what you want

Chorus

We're two souls, in tango.
But we're too strong.
I want what you want,
You just give me something i need.

e|---------------------------------------------------------------------------------|
B|---------------------------------------------------------------------------------|
G|---------------------------------------------------------------------------------|
D|-14--14--14----------------------------------------------------------------------|
A|-12--11--9-------X4------------ -------------------------------------------------|
E|---------------------------------------------------------------------------------|

Verse

You are talking, I'm sat talking at the other end. You say you might drop by, if i don't mind...
No, I won't mind.

e|---------------------------------------------------------------------------|
B|---------------------------------------------------------------------------|
G|---------------------------------------------------------------------------|
D|---------------------------------------------------------------------------|
A|-12-12-12-12-12-12-12-12-12-12-12-12-12-12-12-12-12-12-12-12-12-12-12-12---|
E|---------------------------------------------------------------------------|

Now you're coming over,
look over your shoulder,
Where would you rather be?

e|------------------------------------------------------------------------------|
B|------------------------------------------------------------------------------|
G|------------------------------------------------------------------------------|
D|-14--14--(14)-----------14-11-------11----------------------------------------|
A|-12--11--(9)-----9-9-9------- -9-9-9-----14-----------------------------------|
E|------------------------------------------------------------------------------|

And if you never show up then you'll never know...

|------------------------------------------------------------------------------|
B|-----------------------------------------------------------------------------|
G|-----------------------------------------------------------------------------|
D|-14--14--14------------------------------------------------------------------|
A|-12--11--9-------------------------------------------------------------------|
E|-----------------------------------------------------------------------------|

That I want what you want.

Chorus

We're two souls, in tango.
But we're too strong.
I want what you want,
You just give me something i need.

e|--------------------------------------------------------------------------------|
B|--------------------------------------------------------------------------------|
G|--------------------------------------------------------------------------------|
D|-14--14--14---------------------------------------------------------------------|
A|-12--11--9-------X4------------ ------------------------------------------------|
E|--------------------------------------------------------------------------------|

Solo
              H     P
e|-------------------------------------------|----------------------------------|
B|-------------------------------------------|----------------------------------|
G|-13-14-13----------------------------------|----------------------------- ----|
D|----------16-14---11-----11----14--11------|---11-11-11-9---X 4---------------|
A|---------------------12-----12-------------|----------------------------------|
E|-------------------------------------------|----------------------------------|
              H    P
e|-------------------------------------------|----------------------------------|
B|-------------------------------------------|----------------------------------|
G|-13-14-13----------------------------------|----------------------------- ----|
D|----------16-14---11-----11----14--11------|-11-11-11-11-14-14-14-14----------|
A|---------------------12-----12-------------|----------------------------------|
E|-------------------------------------------|----------------------------------|

             H     P
e|-------------------------------------------|----------------------------------|
B|-------------------------------------------|----------------------------------|
G|-13-14-13----------------------------------|----------------------------- ----|
D|----------16-14---11-----11----14--11------|---11-11-11-9---X 4---------------|
A|---------------------12-----12-------------|----------------------------------|
E|-------------------------------------------|----------------------------------|
              H    P
e|-------------------------------------------|----------------------------------|
B|-------------------------------------------|----------------------------------|
G|-13-14-13----------------------------------|----------------------------- ----|
D|----------16-14---11-----11----14--11------|-11-11-11-11-14-14-14-14----------|
A|---------------------12-----12-------------|----------------------------------|
E|-------------------------------------------|----------------------------------|

e|------------------------------------------------------------------------------|
B|------------------------------------------------------------------------------|
G|------------------------------------------------------------------------------|
D|-14-14-14---------------------------------------------------------------------|
A|-9--11-12---------------------------------------------------------------------|
E|------------------------------------------------------------------------------|

That I want what you want.

Chorus

We're two souls, in tango.
But we're too strong.
I want what you want,
You just give me something i need.

e|--------------------------------------------------------------------------------|
B|--------------------------------------------------------------------------------|
G|--------------------------------------------------------------------------------|
D|-14--14--14---------------------------------------------------------------------|
A|-12--11--9-------X4------------ ------------------------------------------------|
E|--------------------------------------------------------------------------------|

e|------------------------------------------------------------------------------|
B|------------------------------------------------------------------------------|
G|------------------------------------------------------------------------------|
D|-14-14-14---------------------------------------------------------------------|
A|-9--11-12---------------------------------------------------------------------|
E|------------------------------------------------------------------------------|

End - Unsure on some of it please don't hesitate to contact me for corrections!

Thanks

Neil x

| /   slide up
| \   slide down
| h   hammer-on
| p   pull-off
| ~   vibrato
| +   harmonic
| x   Mute note
| b   Bend
| pb  Pre-bend
| br  Bend release
| pbr Pre-bend release
| brb Bend release bend