Misc. Unsigned Bands - Penguin Cafe Orchestra - In The Back Of A Taxi Text Guitar Tab

Learn the song with the online tablature player
e||-------------------------------------------------------------------------|
B||-------------7---------------7---------------7---------------7-----------|
G||---------8---------------8---------------8---------------8---------------|
D||-----9-----------9---9-----------9---9-----------9---9-----------9h11r9--| x5
A||-------------------------------------------------------------------------|
E||-------------------------------------------------------------------------|

e||-------------------------------------------------------------------------|
B||-------------7---------------7---------------7---------------7-----------|
G||---------8---------------9---------------8---------------8---------------|
D||-9---9-----------9---11-----------9---9-----------9---9------------------|
A||-------------------------------------------------------------------------|
E||-------------------------------------------------------------------------|

e||-------------------------------------------------------------------------|
B||-------------7---------------7---------------7---------------7-----------|
G||---------8---------------9---------------8---------------8---------------|
D||-9---9-----------9---11-----------9---9-----------9---9------------------|
A||-------------------------------------------------------------------------|
E||-------------------------------------------------------------------------|

e||--------------------------------------------------------------------------|
B||---------9---7---------------7---------------7---------------7------------|
G||-----9-------------------9---------------8---------------8----------------|
D||-9--------------9---11-----------9---9-----------9---9--------------------|
A||--------------------------------------------------------------------------|
E||--------------------------------------------------------------------------|