Misc. Unsigned Bands - Pepper - Give It Up Text Guitar Tab

Learn the song with the online tablature player
Pepper- Give it up

Intro x2 , slight distortion
E||-----------------------|
B||-----------------------|
G||--8~-------------------|
D||--8~--------8~-------8-|
A||--6~--------8~-------8-|
E||-------8~---6~-------6-|

Verse
repeat as necessary)  , distorted
E||-------------------------------|
B||-------------------------------|
G||-------------------------------|
D||--8----------------------------|
A||--6-x8-----10--------8------66-|
E||-----------8-x8------6-x8---44-|

Pre Chorus x1
E||-----------------------------|
B||-----------------------------|
G||-----------------------------|
D||--6----10----8-8-8-8-8-8-8-8-|
A||--6----10----8-8-8-8-8-8-8-8-|
E||--4----8-----6-6-6-6-6-6-6-6-|

Chorus x4
clean)

E||--4-4-4-4--8--8--8--8---6-6-6-6--6-6--6-6-|
B||--4-4-4-4--8--8--8--8---6-6-6-6--6-6--6-6-|
G||--5-5-5-5--8--8--8--8---7-7-7-7--7-7--7-7-|
D||--6-6-6-6--10-10-10-10--8-8-8-8--8-8--8-8-|
A||--6-6-6-6--10-10-10-10--8-8-8-8--8-8--8-8-|
E||--4-4-4-4--8--8--8--8---6-6-6-6--6-6--6-6-|

Verse 2
same as verse 1)

Interlude part
"why you gotta sleep with my daaaad.."
E||--6----6----4----|
B||--7----7----6----|
G||--8----8----6----|
D||--8----8----6----|
A||--6----6----4----|
E||-----------------|

Chorus
Verse