Misc. Unsigned Bands - Peppermint Creeps - Fuck Off And Die Text Guitar Tab

Learn the song with the online tablature player
So here's the F*ck off and Die solo. It's REALLY easy and fun to play. There's not alot
pull off's and stuff required but you can have fun with it if you want.

E-------------------------------------------------------------------------|
B--15-15----16-15-------15---16--15-----15-15----16-15-------15-----------|
G--------14-------14-14----14-------14--------14-------14-14----15--------|
D-----------------------------------------------------------------16------|
A-------------------------------------------------------------------------|
E-------------------------------------------------------------------------|

E-------------------------------------------------------------------------|
B--15-15-----16-15-------15----16-15--------15----16-15----15-------------|
G--------14--------14-14----14-------14--14----14-------14----14----------|
D----------------------------------------------------------------15-------|
A-------------------------------------------------------------------------|
E-------------------------------------------------------------------------|