Misc. Unsigned Bands - Person L - Storms Text Guitar Tab

Learn song with the online tabulature player
http://www.myspace.com/personL

intro:

E|--------------------------------------------------|
B|--------------------------------------------------|
G|---7---7---7--7--7--7--7---11---------------------|
D|---5---5---0--5--5--5--0---11---------------------| 
A|---5---5---0--5--5--5--0---9----------------------|
D|---5---5---0--5--5--5--0---0----------------------|

chorus:          
E|---------------------------------------------|
B|---------------------------------------------|
G|---7---------------11---11-------------------|
D|---9--x's 10-------12---12-------------------| 
A|---9---------------12---12-------------------|
D|---9---------------12---12-------------------|

after the chorus it goes back into the intro chords.

Get timing from song!

Long live Ken Vasoli.