Misc. Unsigned Bands - Piamenta - Od Yishama Text Guitar Tab

Learn the song with the online tablature player
Allow for feedback to ring until harmonics sound on first note  (for around two bars).

           Em                   Am
e---------|--------------------|---------------------|
B---------|--------------------|---------------------|
G---------|--------------------|---------------------|
D---------|--------------------|---------------------|
A---------|--7---5-----5-----7-|--7---5--------------|
E-0-------|0---0-----57---7s9--|0---0----x765s3-543p0|

 Em                   Am                  G
e--------------------|----------------2-----|
B--------------------|----------------2-----|
G--------------------|----------------------|
D--------------------|----------------------|
A--7---5-----5-----7-|--7---5---------2-----|
E0---0-----57---7s9--|0---0----x765s3-3-----|