Misc. Unsigned Bands - Pickles And Kool-aid - Got To Love That Juicy Frank Text Guitar Tab

Learn the song with the online tablature player
Intro
-----------------------------------------------------------------|
-----------------------------------------------------------------|
-----------------------------------------------------------------|
-----------------------------------------------------------------|  x3 play
-----------------------------------------------------------------|      3x
---------0-------5--6------0--6--7------7--6---------------------|     in all

-----------------------------------------------------------------|
-----------------------------------------------------------------|
-----------------------------------------------------------------|
-----------------------------------------------------------------|  x4  play
-----------------------------------------------------------------|       4x
---0-0-0-0-0-6-7-----------0-0-0-0-8-7-6-------------------------|     in all

-----------------------------------------------------------------|
-----------------------------------------------------------------|
-----------------------------------------------------------------|
-----------------------------------------------------------------|  x2  play
-----------------------------------------------------------------|       2x
-----0-0-6-0-0-7-0-0-6-0-0-7-0-8---0-0-6-0-0-7-0-0-6-0-0-7-0-5---|     in all

play this on main melody through like the whole song!
-----------------------------------------------------------------|
-----------------------------------------------------------------|
-----------------------------------------------------------------|
-----------------------------------------------------------------|
-----------------------------------------------------------------|
------------7-7-7-7-7--------------------------------------------|

Play this on chorus!
-----------------------------------------------------------------|
-----------------------------------------------------------------|
-----------------------------------------------------------------|
-----------------------------------------------------------------|
-----------------------------------------------------------------|
-----------6-7-----7-6-----7-7-7-7-7-------7-7-7-7-7-------------|