Misc. Unsigned Bands - Pink Flamingo - Step Forward Text Guitar Tab

Learn song with the online tabulature player
This Band consist of three good ol' boys working on making it in the big times so they
asked me to post some of there tabs for em'

|-------------------------------------------------------|
|-------------------------------------------------------|
|-------------------------------------------------------|
|--3-3-3--3-3----6-6-6--6-6----8-8-8--8-8----3-3-3--3-3-|
|-2-2-2--2-2-2--4-4-4--4-4-4--7-7-7--7-7-7--2-2-2--2-2-2|
|3------3------5------5------8------8------3------3-----|

|2-2-x-x-x-4-4-6-6|
|2-2-x-x-x-4-4-6-6|
|2-2-x-x-x-4-4-6-6| x3
|1-1-x-x-x-3-3-5-5|
|1-1-x-x-x-3-3-5-5|
|1-1-x-x-x-3-3-5-5|

|x-x-x-2-x-x-2-x-x-x-x-2-x-x-2-x-x-x-x|
|x-x-x-2-x-x-2-x-x-x-x-2-x-x-2-x-x-x-x|
|x-x-x-2-x-x-2-x-x-x-x-2-x-x-2-x-x-x-x|
|x-x-x-1-x-x-1-x-x-x-x-1-x-x-1-x-x-x-x|
|x-x-x-1-x-x-1-x-x-x-x-1-x-x-1-x-x-x-x|
|x-x-x-1-x-x-1-x-x-x-x-1-x-x-1-x-x-x-x|

|2-2-x-x-x-4-4-6-6|
|2-2-x-x-x-4-4-6-6|
|2-2-x-x-x-4-4-6-6| x3
|1-1-x-x-x-3-3-5-5|
|1-1-x-x-x-3-3-5-5|
|1-1-x-x-x-3-3-5-5|

|-------------------|
|-------------------|
|------3-2-2-3------|x2
|---3-2-------2-3---|
|3-2-------------2-3|
|-------------------|

|2-2-x|
|2-2-x|
|2-2-x|To The End
|1-1-x|
|1-1-x|
|1-1-x|