Misc. Unsigned Bands - Piss On A Rock - Shes A Whore Text Guitar Tab

Learn the song with the online tablature player
                            She's a Whore - Piss on a Rock

INTRO
Repeat x2
e|---------------------------------2----------------------------------------|
B|--------0-----------1------------3-----------1----------------------------|
G|--------0-----------0---------2--------------0----------------------------|
D|-----0-----------2---------0--------------2-------------------------------|
A|--------------3------------------------3----------------------------------|
E|--3-----------------------------------------------------------------------|

VERSE
e|--------------------------------------------------------------------------|
B|------0---------1--------------3---------1--------------------------------|
G|-------------------0--------2---------------0-----------------------------|
D|----0--------------------0------------------------------------------------|
A|------------3------------------------3------------------------------------|
E|--3-----------------------------------------------------------------------|

CHORUS
G C D C

     G: -3-

| /  slide up
| \  slide down
| h  hammer-on
| p  pull-off
| ~  vibrato
| +  harmonic
| x  Mute note