Misc. Unsigned Bands - Pk - 1920 Text Guitar Tab

Learn the song with the online tablature player
Intro

eb-------------------------------------------------------|
Bb-------------------------------------------5-----------|
Gb--6-------9-------------------7------6-----4------7----|
Db--7-x12---9-x2---7------------4-x12--4-x1--6-x12--6-x2-|
Ab--9-------7------7-x12--------5------5-----7------7----|   and repeat with guitar 2
Eb-----------------5-----0h5p0---------------------------|

Guitar 2

eb-----------------------------------------------------------|
Bb-----------------------------------------------------------|
Gb--10-----9-----16--------6-6-----6/4-6p4-6-6-----6-7-9--x2-|
Db--x------x-----x-------------7-7-------------7-7-----------|
Ab--12-----7-----14------------------------------------------|
Eb-----------------------------------------------------------|

"Way out held up under a western sky..."

eb----------------------------------------------------------------------------|
Bb---------5-----------------------5-----------5-----------------5------------|
Gb--6------6-----------6-----------6-----6-----6-----------6-----6------------|
Db--7-x4---7-x4--4-----7-x4--4-----7-x8--7-x4--7-x4--4-----7-x4--7-x4--4------|
Ab--9------7-----5-x8--9-----5-x4--7-----9-----7-----5-x8--9-----7-----5-x16--|
Eb---------------5-----------5-----------------------5-----------------5------|

Guitar 2 Chorus

eb------------------------------|
Bb------------------------------|
Gb---14p13--------14p13---------|
Db---------11-----------11------|
Ab--------------------------12--|
Eb------------------------------|

Repeat Intro

"My brother's home in the darkness...."

eb--------------------5------------------------------5----|
Bb--7-----5-----------5------------7-----5-----------5----|
Gb--6-----6-----------6----(4)-----6-----6-----------6----|
Db--7-x8--7-x8--4-----7-x4--6-x4---7-x8--7-x8--4-----7-x8-|
Ab--5-----7-----5-x8--7-----7------5-----7-----5-x8--7----|
Eb--------------5-----5-----7------------------5-----5----|

"...And i believe you belong to someone else"

eb----------------------------------------------------------------------------|(Big ring outs)
Bb---------5-----------------------5-----------5-----------------5------------|(on last chord)
Gb--6------6-----------6-----------6-----6-----6-----------6-----6------------|
Db--7-x4---7-x4--4-----7-x4--4-----7-x8--7-x4--7-x4--4-----7-x4--7-x4--4------|
Ab--9------7-----5-x8--9-----5-x4--7-----9-----7-----5-x8--9-----7-----5-x16--|
Eb---------------5-----------5-----------------------5-----------------5------|

Guitar 2 Same as Chorus

Bridge
Play in a "Gallop" rhythm)

eb---------------|
Bb---------------|
Gb---------7-----|   Repeat 3 times
Db--7------7-x24-|
Ab--7-x24--5-----|
Eb--5------------|

Guitar 2 With Lower Octave on Slide Parts

eb--------12----12-------10----10---16-17--|
Bb--12/14----14----14/12----12------14-15--|
Gb-----------------------------------------|
Db-----------------------------------------|
Ab-----------------------------------------|
Eb-----------------------------------------|

"Way out held up under a western sky..."

Halfway through go LOUD
eb----------------------------------------------------------------------------|
Bb---------5-----------------------5-----------5-----------------5------------|
Gb--6------6-----------6-----------6-----6-----6-----------6-----6------------|
Db--7-x4---7-x4--4-----7-x4--4-----7-x8--7-x4--7-x4--4-----7-x4--7-x4--4------|
Ab--9------7-----5-x8--9-----5-x4--7-----9-----7-----5-x8--9-----7-----5-x16--|
Eb---------------5-----------5-----------------------5-----------------5------|

eb-------------------|
Bb-------------------|
Gb---------------7-7-|
Db---4-4---7-7---7-7-| x2 last time hold out last chord
Ab---4-4---7-7---5-5-|
Eb---2-2---5-5-------|

Guitar2 Chorus through end

Repeat one more time

End on A

eb-----
Bb--2--
Gb--2--
Db--2--
Ab--0--
Eb-----