Misc. Unsigned Bands - Port Blue - In The Dolphin Tank Text Guitar Tab

Learn song with the online tabulature player
Port Blue

In the dolphin tank

tabbed by Daniel
dkgone1@googlemail.com
enjoy  :)

|----------------------------------------------------|
|-----------------------4--2-------------------------|
|--1--4---3--4---1--4---------4----------------------|
|------4------4------4-------------------------------|              Part A
|----------------------------------------------------|
|----------------------------------------------------|


|----------------------------------------------------|
|----------------4------4----------------------------|
|--1--4---3--4------4------4-------------------------|
|------4------4--------------------------------------|              Part B
|----------------------------------------------------|
|----------------------------------------------------|


Intro: Part A x2
Rest of song: b, a, b, a, b