Misc. Unsigned Bands - Pram - Bleeding Glass Eye Text Guitar Tab

Learn the song with the online tablature player
                             Bleeding Glass Eye - PRAM

Intro
Gtar #1 (central Pickup possition)
e|--------------------------------------------------------------------|
B|--------------------------------------------------------------------|
G|--------------------------------------------8-7-------------8-7\3/7~|
D|------------8-7-------------8-7-------7-8-7-----------7-8-7---------|
A|------7-8-7-----------7-8-7-----------------------------------------|
E|0-0-0-----------0-0-0-----------0-0-0-----------0-0-0---------------|
Gtar #1 and #2 (g#2 on Bridge Pickup)
e|--------------------------------------------------------------------|
B|--------------------------------------------------------------------|
G|--------------------------------------------8-7-------------8-7\3/7~|
D|------------8-7-------------8-7-------7-8-7-----------7-8-7---------|
A|------7-8-7-----------7-8-7-----------------------------------------|
E|0-0-0-----------0-0-0-----------0-0-0-----------0-0-0---------------|

Verse
Both Gtars
e|-------------------------------|
B|-------------------------------|
G|-------------------------------|
D|----3-2-----3-2-----3-0-----3-0|
A|--2-------2-------2-------3----|
E|0-------0-------0-------0------|

e|-------------------------------|
B|-------------------------------|
G|-------------------------------|
D|----5-4-----4-3-----3-0-----2-0|
A|--4-------3-------2-------2----|
E|0-------0-------0-------0------|

e|---------------------------------|
B|---------------------------------|
G|---------------------------------|
D|------2-------3-------5---5---3-2|
A|------2-------3-------5---5---3-2|
E|0-0-0---0-0-0---0-0-0---0---0---0|

Chorus
e|------------------------------------------------------------------|
B|------------------------------------------------------------------|
G|------------------------------------------------------------------|
D|-------------7--------------8--------------9--------------8-7\3/7~|
A|-------7-8-9----------7-8-9----------7-8-9----------7-8-7---------|
E|0-7-10---------0-7-10---------0-7-10---------0-7-10---------------|

e|------------------------------------------------------------|
B|------------------------------------------------------------|
G|------------------------------------------------------------|
D|----------8-7-----------8-7-----------8-7-----------8-7\3/7~|
A|----7-8-7---------7-8-7---------7-8-7---------7-8-7---------|
E|000-----------000-----------000-----------000---------------|
  ...           ...           ...           ...

Outro
Gtar #2
e|-------------|T |----|
B|-------------|I |----|
G|-------------|M |----|
D|2-----7-----3|E |-2}-|Let ring out
A|2-----7-----3|S |-2}-|till the end of
E|0-----5-----1|2 |-0}-|the song
| /  slide up     b  bend
| \  slide down   =  alternate picking
| h  hammer-on    x  rake
| p  pull-off     *  spasm rake
| ~  vibrato      }  let ring
| +  harmonic
| .  Mute note
The world needs music, the world needs more rock bands, without rock, the
world will be taken over by those pussy Rap Artists! Where IS the skills?
Its not in Rap, get some real instruments, not pussy little backbeats used
in every other song played on the radio. Public radio in Australia sucks balls!