Misc. Unsigned Bands - Prezebla Mafija - Gonna See Her Naked Text Guitar Tab

Learn the song with the online tablature player
                             Gonna See Her Naked - Prezebla Mafija

Kitari

e|---------------------------------------------------------------------------|
B|---------------------------------------------------------------------------|
G|---------------------------------------------------------------------------|Intro
D|-7-7-----------------------------------------------------------------------|
A|-7-7---4x--+(Cvil: 9\1)----------------------------------------------------|
E|-5-5-----------------------------------------------------------------------|

e|---------------------------------------------------------------------------|
B|---------------------------------------------------------------------------|
G|-------5-5---9-9--7-7--5-5-------------------------------------------------|Riff
D|-7-7---5-5---9-9--7-7--5-5-------------------------------------------------|
A|-7-7---3-3---7-7--5-5--3-3-------------------------------------------------|
E|-5-5-----------------------------------------------------------------------|

e|---------------------------------------------------------------------------|
B|---------------------------------------------------------------------------|
G|-------------------5-5-5-5---7-7-7-7---------------------------------------|Refren
D|-7-7-7-7-7-7-7-7---5-5-5-5---7-7-7-7---------------------------------------|
A|-7-7-7-7-7-7-7-7---3-3-3-3---5-0-5-5---------------------------------------|
E|-5-5-5-5-5-5-5-5-----------------------------------------------------------|

e|---------------------------------------------------------------------------|
B|---------------------------------------------------------------------------|
G|-------------------5-5-5---------------------------------------------------|Medley
D|-7-7-7-7-7-7-7-7---5-5-5---5-5-5-5-----------------------------------------|
A|-7-7-7-7-7-7-7-7---3-3-3---5-5-5-5-----------------------------------------|
E|-5-5-5-5-5-5-5-5-----------3-0-3-3-----------------------------------------|

| /   slide up
| \   slide down
| h   hammer-on
| p   pull-off
| ~   vibrato
| +   harmonic
| x   Mute note
| b   Bend
| pb  Pre-bend
| br  Bend release
| pbr Pre-bend release
| brb Bend release bend