Misc. Unsigned Bands - Prezebla Mafija - Revolver Blues Text Guitar Tab

Learn the song with the online tablature player
                             Revolver Blues - Prezebla Mafija

Bobni intro: Rumbl...

Kitari

e|---------------------------------------------------------------------------|
B|---------------------------------------------------------------------------|
G|--4-4-4--------------------------------------------------------------------|Riff
D|--4-4-4---5-5-5-5-5-5-5-5-------------------9-9-9---5-5-5-5-5-5-5-5--------|
A|--2-2-2---5-5-5-5-5-5-5-5----oz. isto kot:--9-9-9---5-5-5-5-5-5-5-5--------|
E|----------3-3-3-3-3-3-3-3-------------------7-7-7---3-3-3-3-3-3-3-3--------|

e|---------------------------------------------------------------------------|
B|---------------------------------------------------------------------------|
G|--4-4-4---------------------4-4-4------------------------------------------|Refren
D|--4-4-4---5-5-5-5-5-5-5-5---4-4-4---5-5-5-5-7-7-7--------------------------|
A|--2-2-2---5-5-5-5-5-5-5-5---2-2-2---5-5-5-5-7-7-7--------------------------|
E|----------3-3-3-3-3-3-3-3-----------3-3-3-3-5-5-5--------------------------|

e|-------------------------------------------------------------------------|
B|-------------------------------------------------------------------------|
G|--4~---------------------------------------------------------------------|Medley (Bobni prehod)
D|--4~----5~--2-5----------------------------------------------------------|
A|--2~----5~--2-5----------------------------------------------------------|
E|--------3~--0-3----------------------------------------------------------|

| /   slide up
| \   slide down
| h   hammer-on
| p   pull-off
| ~   vibrato
| +   harmonic
| x   Mute note
| b   Bend
| pb  Pre-bend
| br  Bend release
| pbr Pre-bend release
| brb Bend release bend