Misc. Unsigned Bands - Prezebla Mafija - Sorrow Text Guitar Tab

Learn the song with the online tablature player
                             Sorrow$ - Prezebla Mafija

Kitara Matjaž - Clean

e|---------------------------------------------------------------------------|
B|---------------------------------------------------------------------------|
G|---------------------------------------------------------------------------|Intro 4x
D|-----4---------------------------------------------------------------------|
A|-----------4-----5-----4---------------------------------------------------|
E|-2-2---2-2---2-2---2-2---3~------------------------------------------------|

Vključi kitara Marko - Dist.

e|---------------------------------------------------------------------------|
B|---------------------------------------------------------------------------|
G|---------------------------------------------------------------------------|4x
D|-----4---------------------------------------------------------------------|
A|-----------4-----5-----4---------------------------------------------------|
E|-2-2---2-2---2-2---2-2---3~------------------------------------------------|

Kitara Matjaž - Clean

e|---------------------------------------------------------------------------|
B|---------------------------------------------------------------------------|
G|---------------------------------------------------------------------------|1x
D|-----4---------------------------------------------------------------------|
A|-----------4-----5-----4---------------------------------------------------|
E|-2-2---2-2---2-2---2-2---3~------------------------------------------------|

e|---------------------------------------------------------------------------|
B|---------------------------------------------------------------------------|
G|-----9-----7-----5-----7-----9-9-9-9-9-9-----------------------------------|8x
D|-----9-----7-----5-----7-----9-9-9-9-9-9-----------------------------------|
A|-----7-----5-----3-----5-----7-7-7-7-7-7-----------------------------------|
E|-0-0---0-0---0-0---0-0---0-0-----------------------------------------------|

Kitara Matjaž - Clean

e|---------------------------------------------------------------------------|
B|---------------------------------------------------------------------------|
G|---------------------------------------------------------------------------|2x
D|-----4---------------------------------------------------------------------|
A|-----------4-----5-----4---------------------------------------------------|Vox
E|-2-2---2-2---2-2---2-2---3~------------------------------------------------|

Kitara Marko - Dist.

e|---------------------------------------------------------------------------|
B|---------------------------------------------------------------------------|
G|---------------------------------------------------------------------------|2x
D|-4-4---4-4---4-4---4-4-/-5-5-----------------------------------------------|
A|-4-4---4-4---4-4---4-4-/-5-5-----------------------------------------------|Vox
E|-2-2---0-2---2-2---0-2-/-3-3-----------------------------------------------|

| /   slide up
| \   slide down
| h   hammer-on
| p   pull-off
| ~   vibrato
| +   harmonic
| x   Mute note
| b   Bend
| pb  Pre-bend
| br  Bend release
| pbr Pre-bend release
| brb Bend release bend