Misc. Unsigned Bands - Prezebla Mafija - Ti Pijes Grajsko Text Guitar Tab

Learn the song with the online tablature player
                             Ti Pijes Grajsko - Prezebla Mafija

Kitari

e|--0h-----------------------------------------------------------------------|
B|--0h-----------------------------------------------------------------------|
G|--1h-----------------------------------------------------------------------|Intro
D|--2h-----------------------------------------------------------------------|
A|--2h-----------------------------------------------------------------------|
E|--0h-----------------------------------------------------------------------|

e|---------------------------------------------------------------------------|
B|---------------------------------------------------------------------------|
G|---------------------------------------------------------------------------|Riff
D|--2-2-2-2-5-2-8-8-8-8-7-5--------------------------------------------------|
A|--2-2-2-2-5-2-8-8-8-8-7-5--------------------------------------------------|
E|--0-0-0-0-3-0-6-6-6-6-5-3--------------------------------------------------|

e|---------------------------------------------------------------------------|
B|--O-O-O-O-O-O-O-O-O-O-O-O-M-K-M-K------------------------------------------|
G|---------------------------------------------------------------------------|Sinkopa
D|--2-2-2-2-5-5-5-5-2-2-2-2-8-7-5-5------------------------------------------|O=Oba
A|--2-2-2-2-5-5-5-5-2-2-2-2-8-7-5-5------------------------------------------|M=Matjaz
E|--0-0-0-0-3-3-3-3-0-0-0-0-6-5-3-3------------------------------------------|K=Marko

e|---------------------------------------------------------------------------|
B|---------------------------------------------------------------------------|
G|---------------------------------------------------------------------------|ruzenje
D|--2-2-2-x-x-x-x------------------------------------------------------------|
A|--2-2-2-x-x-x-x------------------------------------------------------------|
E|--0-3-0-x-x-x-x------------------------------------------------------------|

| /   slide up
| \   slide down
| h   hammer-on
| p   pull-off
| ~   vibrato
| +   harmonic
| x   Mute note
| b   Bend
| pb  Pre-bend
| br  Bend release
| pbr Pre-bend release
| brb Bend release bend