Misc. Unsigned Bands - Progression - Southern Rock Text Guitar Tab

Learn the song with the online tablature player
|-------------------------------------|
|-------------------------------------|
|-------------------------------------|    x5
|-------------------------------------|
|-------------------------------------|
|-0-0-0-3-0-0-0-5-0-0-0-7-0-0-0-9-----|

|--------------------------------------|
|--------------------------------------|
|--------------------------------------|
|--------------------------------------|
|--------------------------------------|
|-0-0-3-2-1----3-2-1----3-2-1----3-2-1-|

|-------------------------------------|
|-------------------------------------|
|-------------------------------------|    x5
|-------------------------------------|
|-------------------------------------|
|-0-0-0-3-0-0-0-5-0-0-0-7-0-0-0-9-----|

|--------------------------------------|
|--------------------------------------|
|--------------------------------------|
|--------------------------------------|
|--------------------------------------|
|-0-0-3-2-1----3-2-1----3-2-1----3-2-1-|

|--------------------------------------|
|--------------------------------------|
|--------------------------------------|
|--------------------------------------|
|--------------------------------------|
|-0-0-3-2-1----3-2-1----3-2-1----3-2-1-|

SOLO

|-------|
|-------|
|-------|
|-------|
|-------|
|-3-2-1-|