Misc. Unsigned Bands - Pure Pwnage - I Look In Your Eyes Text Guitar Tab

Learn the song with the online tablature player
i look in your eyes
simon's karaoke song - season 1 episode 6

pure pwnage

e:------------------------------------|
B:-2--2-2-2-3--0--0-0--2--2--2-2--3-3-|
G:-2--2-2-2-2--0--2-4--2--2--2-2--4-4-|
D:-2--2-2-2-2--0--0-0--2--2--2-2--4-4-|
A:-0--0-0-0-0--0--0-0--0--0--0-0--2-2-|
E:-------------3--3-3-----------------|

   i look in your eye, know i would be here forever waiting for you
e:----------------------------------------------------------|
B:-----------------4--4-4-4-4-4-4--2--2-2-2-2-2-2-----------|
G:-5--5-5-5-5-5-5--5--5-5-5-5-5-5--3--3-3-3-3-3-3--5-5--3-3-|
D:-6--6-6-6-6-6-6--5--5-5-5-5-5-5--3--3-3-3-3-3-3--6-6--4-4-|
A:-6--6-6-6-6-6-6--3--3-3-3-3-3-3--1--1-1-1-1-1-1--6-6--4-4-|
E:-4--4-4-4-4-4-4----------------------------------4-4--2-2-|

  sun raise in the sky then i would leave you and ever waiting for you
e:----------------------------------------------------------|
B:-----------------4--4-4-4-4-4-4--2--2-2-2-2-2-2-----------|
G:-5--5-5-5-5-5-5--5--5-5-5-5-5-5--3--3-3-3-3-3-3--5-5--3-3-|
D:-6--6-6-6-6-6-6--5--5-5-5-5-5-5--3--3-3-3-3-3-3--6-6--4-4-|
A:-6--6-6-6-6-6-6--3--3-3-3-3-3-3--1--1-1-1-1-1-1--6-6--4-4-|
E:-4--4-4-4-4-4-4----------------------------------4-4--2-2-|

  youuuuuuuuuu       ahhhh ohhhhh ohhhh          yeah yeah
e:----------------------------------------------------------|
B:-----------------4--4-4-4-4-4-4--2--2-2-2-2-2-2-----------|
G:-5--5-5-5-5-5-5--5--5-5-5-5-5-5--3--3-3-3-3-3-3--5-5--3-3-|
D:-6--6-6-6-6-6-6--5--5-5-5-5-5-5--3--3-3-3-3-3-3--6-6--4-4-|
A:-6--6-6-6-6-6-6--3--3-3-3-3-3-3--1--1-1-1-1-1-1--6-6--4-4-|
E:-4--4-4-4-4-4-4----------------------------------4-4--2-2-|

hillo son mex

27/07/10