Misc. Unsigned Bands - Purple Soldier - Cry Me A River Of Lava Text Guitar Tab

Learn song with the online tabulature player
E|---------------------------------------------------------------------|
B|---------------------------------------------------------------------|
G|---------------------------------------------------------------------|
D|---------------------------------------------------------------------|
A|7-7-7-7-5-5-5-5-3-3-3-3-5-5-5-5--------------------------------------| 
E|5-5-5-5-3-3-3-3-1-1-1-1-3-3-3-3--------------------------------------|X3

       Into The solo 
 |---------------------------------------------------------------------|
 |---------------------------------------------------------------------|
 |---------------------------------------------------------------------|
 |---------------------------------------------------------------------|
 |7-7-7-7-5-5-5-5-3-5--------------------------------------------------|
 |5-5-5-5-3-3-3-3-1-3-13121110987654321111-----------------------------|

                    Outro
 |---------------------------------------------------------------------|
 |---------------------------------------------------------------------|
 |---------------------------------------------------------------------|
 |---------------------------------------------------------------------|
 |7-7-5-5-3-3-5-5-7-7-5-5-3-3-5-5-7-7-5-5-3-3-5-5-7--------------------|
 |5-5-3-3-1-1-3-3-5-5-3-3-1-1-3-3-5-5-3-3-1-1-3-3-5--------------------|