Misc. Unsigned Bands - Pyromaniacs - Blues Text Guitar Tab

Learn the song with the online tablature player
pyromaniacs blues solo

e|-----12------------------------------------------------------------|
B|--------15-12~---------------12------------------------------------|
G|-14^-----------14^-12----14^----14-14-12-12----------------12~-----|
D|----------------------14--------------------14/9------12-14----14--|
A|-------------------------------------------------9\14--------------|
E|-------------------------------------------------------------------|

e|-12----------------------------------------------------------------|
B|----15-12----------------------------------------------------------|
G|----------14-----14-12---------------------------------------------|
D|-------------13^-------14-12---------------------------------------|
A|-----------------------------15-12---------------------------------|
E|-----------------------------------15-13~-13/1---------------------|

Thats it.