Misc. Unsigned Bands - Quick Kill Lucy - Your Dads Dead Text Guitar Tab

Learn the song with the online tablature player
Intro
Guitar 1

e|-------------------------------------------------------------------------|
B|-------------------------------------------------------------------------|
G|-------------------77777777----------99999999----------55555555----------|
D|-55555555----------77777777----------99999999----------55555555----------|
A|-55555555----------55555555----------77777777----------33333333----------|
E|-33333333----------------------------------------------------------------|

                                 X3

Chorus
Guitar 1 & 2

e|-------------------------------------------------------------------------|
B|-------------------------------------------------------------------------|
G|-------------------77777777----------99999999----------55555555----------|
D|-55555555----------77777777----------99999999----------55555555----------|
A|-55555555----------55555555----------77777777----------33333333----------|
E|-33333333----------------------------------------------------------------|

                                X2

Verse 1

Guitar 1 & 2

e|-------------------------------------------------------------------------|
B|-------------------------------------------------------------------------|
G|-------------------77777777----------99999999----------5-5-5555----------|
D|-55555555----------77777777----------99999999----------5-5-5555----------|
A|-55555555----------55555555----------77777777----------3-3-3333----------|
E|-33333333----------------------------------------------------------------|

Chorus
Guitar 1 & 2

e|-------------------------------------------------------------------------|
B|-------------------------------------------------------------------------|
G|-------------------77777777----------99999999----------55555555----------|
D|-55555555----------77777777----------99999999----------55555555----------|
A|-55555555----------55555555----------77777777----------33333333----------|
E|-33333333----------------------------------------------------------------|

                                  X2

Verse 2

Guitar 1 & 2

e|-------------------------------------------------------------------------|
B|-------------------------------------------------------------------------|
G|-------------------77777777----------99999999----------5-5-5555----------|
D|-55555555----------77777777----------99999999----------5-5-5555----------|
A|-55555555----------55555555----------77777777----------3-3-3333----------|
E|-33333333----------------------------------------------------------------|

Chorus
Guitar 1 & 2

e|-------------------------------------------------------------------------|
B|-------------------------------------------------------------------------|
G|-------------------77777777----------99999999----------55555555----------|
D|-55555555----------77777777----------99999999----------55555555----------|
A|-55555555----------55555555----------77777777----------33333333----------|
E|-33333333----------------------------------------------------------------|

                                  X2

Verse 3
Guitar 1

e|-------------------------------------------------------------------------|
B|-------------------------------------------------------------------------|
G|--------------------77-7--77-7----------99-9--99-9---------55-5--55-5----|
D|-55-5-55-5----------77-7--77-7----------99-9--99-9---------55-5--55-5----|
A|-55-5-55-5----------55-5--55-5----------77-7--77-7---------33-3--33-3----|
E|-33-3-33-3---------------------------------------------------------------|
   **   **            **    **            **    **           **    **

e|-------------------------------------------------------------------------|
B|-------------------------------------------------------------------------|
G|--------------------77-7--77-7----------99-9--99-9---------5-5-5-5-------|
D|-55-5-55-5----------77-7--77-7----------99-9--99-9---------5-5-5-5-------|
A|-55-5-55-5----------55-5--55-5----------77-7--77-7---------3-3-3-3-------|
E|-33-3-33-3---------------------------------------------------------------|
   **   **            **    **            **    **

Guitar 2

solo

Chorus
Guitar 1 & 2

e|-------------------------------------------------------------------------|
B|-------------------------------------------------------------------------|
G|-------------------77777777----------99999999----------55555555----------|
D|-55555555----------77777777----------99999999----------55555555----------|
A|-55555555----------55555555----------77777777----------33333333----------|
E|-33333333----------------------------------------------------------------|

                                  X3