Misc. Unsigned Bands - Radio Pirate Dj - Kimberly Vegas Text Guitar Tab

Learn the song with the online tablature player
Artist:Radio Pirate DJ
Song:  Kimberly Vegas
Album: 2005 Summer Demo

Intro
- Both guitars rock out to this

e|--play-this-x3----------|-then----------------------|
B|------------------------|---------------------------|Play all this 2 times
G|11--9-11--9-11-9-13/11-9|11-911-9-88998899----------|
D|-x--x--x--x--x-x--x-x--x|-x-x-x-x-xxxxxxxx----------|
A|-9--7--9--7--9-7-11/9--7|-9-7-9-7-66776677----------|
D|------------------------|---------------------------|

Verse
- Guitar Uno

         Play Twice
e|------------------------------------------------------|
B|------------------------------------------------------|
G|99-9-13~---99-9-13~---99-9-13~---9911-9-7-------------|
D|xx-x--x----xx-x--x----xx-x--x----xx-x-x-x-------------|
A|77-7-11~---77-7-11~---77-7-11~---77-9-7-6-------------|
D|------------------------------------------------------|

Prechorus
- Guitar Two

e|------------------------------------|then-use-this-fill-|
B|----Play-this-Part-Twice------------|-------------------|
G|------------------------------------|-9-7-9-7-7---------|
D|--00000000777777779999999955555555--|-------------------|
A|--00000000777777779999999955555555--|-------------------|
D|--00000000777777779999999955555555--|-------------------|
    ............................

Chorus
- Guitar Two

e|------------------------------------------------------|
B|------------------------------------------------------|
G|9------11-------13-------9----------11----9-----------|
D|x-(x16)-x-(x16)--x-(x16)-x-(x16)--00-x-00-x-----------|
A|7-------9-------11-------7--------00-9-00-7-----------|
D|----------------------------------00---00-------------|
                                    ..   ..
   Chorus Cont.
e|9p------12-10-9-h10p9-------10-9-7h9p7---------12-10-9~~-|
B|--10-10---------------10-10------------10--10------------|
G|---------------------------------------------------------|
D|---------------------------------------------------------|
A|---------------------------------------------------------|
D|---------------------------------------------------------|

---Pre verse-- you play the intro once

verse
- Guitar 2

e|------------------------------------------------------|
B|------------------------------------------------------|
G|-77-7-11~~~~~~11/77-7-11~~~~~~~/----------------------|
D|-xx-x--x-------x-xx-x--x------------------------------|
A|-55-5--9~~~~~~~9/55-5--9~~~~~~~/-slide-down-----------|
D|------------------------------------------------------|

----Preverse 2/Chours 2 is the same.

Bridge
-- Guitar Two (Note its a guitar harmony with both of the guitars so play them
the same timing.) Also is sounds pretty friggen cool.

e|---7----7----7----7----9----7----7----7----9----7----7----7----9----12--|
B|------------------------------------------------------------------------|
G|99---99---99---99---99---99---99---99---99---99---99---99---99---99-----|
D|------------------------------------------------------------------------|
A|------------------------------------------------------------------------|
D|------------------------------------------------------------------------|
  ..   ..   ..   ..   ..   ..   ..   ..   ..   ..   ..   ..   ..   ..

 Guitar One Cont... Play up to here twice
e|-----12------|<----------------------/
B|-------------|
G|-99----------|
D|-------------|
A|-------------|
D|-------------|
   ..

  --- Guitar 2 Bridge ----------------------------------------------------|(play along
guitar one)
e|------------------------------------------------------------------------|
B|------------------------------------------------------------------------|
G|----7----7----7----7----9----7----7----7----9----7----7----7----9----7--|
D|-55---55---55---55---55---55---55---55---55---55---55---55---55---55----|
A|------------------------------------------------------------------------|
D|------------------------------------------------------------------------|
   ..   ..   ..   ..   ..   ..   ..   ..   ..   ..   ..   ..   ..   ..

 ---Guitar 2 continued...
e|-------------------|
B|-------------------|
G|---0----0----------|
D|55---55------------| Play all this 2 times also
A|-------------------|
D|-------------------|
  ..   ..

e|12-12-12-12-12-12-12-12----|
B|---------------------------|

e|12p0-12p0-12p0-12p0-1414-1616-1414-1212--------|
B|-----------------------------------------------|
G|-----------play-this-eight-times---------------|
D|-----------------------------------------------|
A|-----------------------------------------------|
D|-----------------------------------------------|

-----End chorus same as the rest just add a lil feedback on the guitar at the beginning.

---Outro
  -Guitar Two
e|--------------------------------------|
B|--------------------------------------|
G|--------------------------------------|
D|555-555-555-555-999-999-777-777-------|
A|555-555-555-555-999-999-777-777-x2----|
D|555-555-555-555-999-999-777-777-------|

--Guitar One

e|--------------------------------------------------------------------|
B|--------------------------------------------------------------------|
G|131313-131313-131313-131313-111111-111111--9-9-9--9-9-9-------------|
D|-x-x-x--x-x-x--x-x-x--x-x-x--x-x-x--x-x-x--x-x-x--x-x-x-play this x2|
A|111111-111111-111111-111111--9-9-9--9-9-9--7-7-7--7-7-7-------------|
D|--------------------------------------------------------------------|

--Guitar Two

e|---------------------------------------|
B|---------------------------------------|
G|---------------------------------------|
D|5x---------5x---------9x---------7x----|
A|5x---------5x---------9x---------7x----|
D|5x---------5x---------9x---------7x----|

--Guitar One
e|-----------------------------------------------|
B|-----------------------------------------------|
G|------6-----------6----------------------------|
D|--5h7---7-----5h7---7----5h7-5-4----5h7-5-4----|
A|-----------------------------------------------|
D|-----------------------------------------------|
_________________________________________________________________________
_________________________________________________________________________

Im still trying to figure out the lead during the verse and the preverse
Ill get to that later though.

RPDJ rocks extremely hard, have fun kids.
Rate it well.