Misc. Unsigned Bands - Razorapple - Blah Text Guitar Tab

Learn the song with the online tablature player
            E E G
|--------|--0-0-3-------------|----------|
|--------|--0-0-0-------------|----------|
|--------|--1-1-0-------------|----------|
|--------|--2-2-0--2222--4444-|--33333-6-| (x4)
|--2-2-4-|--2-2-2--2222--4444-|--33333-6-|
|--0-0-0-|--0-0-3--0000--0000-|--11111-4-|

Verse

|------------------------|------------------------|
|------------------------|------------------------|
|------------------------|------------------------|
|--444—-777--5-6-5-7-8-7-|--444—-777--5-6-5-7-8-7-|
|--444--777--5-6-5-7-8-7-|--444--777--5-6-5-7-8-7-|
|--222--555--3-4-3-5-6-5-|--222--555--3-4-3-5-6-5-|

Chorus

      (x4)(x?)                     (x4)
|-------|---|---------------|-------|---------------|
|-------|---|---------------|-------|---------------|
|-------|---|---------------|-------|---------------|
|-------|-5-|-/8-5-6-5-5555-|-------|-5555-5/6\5----|
|-5-5-7-|-5-|-/8-5-6-5-5555-|-5-5-7-|-5555-5/6\5----|
|-0-0-0-|-3-|-/6-3-4-3-3333-|-0-0-0-|-3333-3/4\3----|

Bridge

  Ex6    Gx6    Dx7
|-000000-333333-2222222-|
|-000000-000000-3333333-|
|-111111-000000-2222222-|
|-222222-000000-0000000-|
|-222222-222222-0000000-|
|-000000-333333-0000000-|

Outro

       (x4)
|--------|------------------|----------|
|--------|------------------|----------|
|--------|------------------|----------|
|--------|--2-3--2222--4444-|--33333-6-|
|--2-2-4-|--2-3--2222--4444-|--33333-6-|
|--0-0-0-|----1--0000--0000-|--11111-4-|

/ slide up
\ slide down