Misc. Unsigned Bands - Ready Set Fall - Buried Alive Text Guitar Tab

Learn the song with the online tablature player
Title: Buried Alive
Artist: Ready, Set, Fall!
Album: Buried (EP)

Transribed By: Colton Wood

Legend
x - dead note
h - hammer on/pull off
/ - slide
. - palm mute
, - staccato

Electric Guitar 1 - Rhythm

Intro

----------------------------------------|
----------------------------------------|
----------------------------------------|
----------------------------------------|
--0--0--0-------------------------------|
--0--0--0-------------------------------|
  .  .  .

----------------------------------------|
----------------------------------------|
----------------------------------------|
----------------------------------------|
--0--0--0-----------0--0--0-------------|
--0--0--0-----------0--0--0-------------|
  .  .  .           .  .  .

----------------------------------------|
----------------------------------------|
----------------------------------------|
----------------------------------------|
--0--0--0-------------------------------|
--0--0--0--3--3--3--2--2--2/-8--8--8----|
  .  .  .

----------------------------------------|
----------------------------------------|
----------------------------------------|
----------------------------------------|
----------------------------------------|
--7--7--7--7--7--7----------------------|

----------------------------------------|
----------------------------------------|
----------------------------------------|
----------------------------------------|
--0--0--0-------------------------------|
--0--0--0-------------------------------|
  .  .  .

----------------------------------------|
----------------------------------------|
----------------------------------------|
----------------------------------------|
--0--0--0-----------0--0--0-------------|
--0--0--0-----------0--0--0-------------|
  .  .  .           .  .  .

----------------------------------------|
----------------------------------------|
----------------------------------------|
----------------------------------------|
--0--0--0-------------------------------|
--0--0--0--3--3--3--2--2--2/-8--8--8----|
  .  .  .
                                         (Pause)
----------------------------------------|-------|
----------------------------------------|-------|
----------------------------------------|-------|
----------------------------------------|-------|
--------------------8--7--5--------5----|-------|
--7--7--7--7--7--7-----------8--7-------|-------|

All in
----------------------------------------|
----------------------------------------|
----------------------------------------|
----------------------------------------|
-----------------------------------3----|
--0--0--0--2h-3h-0--0--0--0--3h-5-------|
  .  .  .           .  .  .

----------------------------------------|
----------------------------------------|
----------------------------------------|
----------------------------------------|
--------------------8--7--5--------5----|
--0--0--0--2h-3h-0-----------8--7-------|
  .  .  .

----------------------------------------|
----------------------------------------|
----------------------------------------|
----------------------------------------|
----------------------------------------|
--0--0--0--3--3--3--2--2--2/-8--8--8----|
  .  .  .

----------------------------------------|
----------------------------------------|
----------------------------------------|
----------------------------------------|
--------------------8--7--5--------5----|
--7--7--7--7--7--7-----------8--7-------|

----------------------------------------|
----------------------------------------|
----------------------------------------|
----------------------------------------|
-----------------------------------3----|
--0--0--0--2h-3h-0--0--0--0--3h-5-------|
  .  .  .           .  .  .

----------------------------------------|
----------------------------------------|
----------------------------------------|
----------------------------------------|
--------------------8--7--5--------5----|
--0--0--0--2h-3h-0-----------8--7-------|
  .  .  .

----------------------------------------|
----------------------------------------|
----------------------------------------|
----------------------------------------|
----------------------------------------|
--0--0--0--3--3--3--2--2--2/-8--8--8----|
  .  .  .

----------------------------------------||
----------------------------------------||
----------------------------------------||
----------------------------------------||
-----------------------------0----------||
--7--7--7--7--7--7--7--7--7--0----------||
                             .

Verse

----------------------------------------|
----------------------------------------|
----------------------------------------|
----------------------------------------|
-----------------------------------3----|
--0--0--0--2h-3h-0--0--0--0--3h-5-------|
  .  .  .           .  .  .

----------------------------------------|
----------------------------------------|
----------------------------------------|
----------------------------------------|
--------------------8--7--5--------5----|
--0--0--0--2h-3h-0-----------8--7-------|
  .  .  .

----------------------------------------|
----------------------------------------|
----------------------------------------|
----------------------------------------|
----------------------------------------|
--0--0--0--3--3--3--2--2--2/-8--8--8----|
  .  .  .

----------------------------------------|
----------------------------------------|
----------------------------------------|
----------------------------------------|
--------------------8--7--5--------5----|
--7--7--7--7--7--7-----------8--7-------|

----------------------------------------|
----------------------------------------|
----------------------------------------|
----------------------------------------|
-----------------------------------3----|
--0--0--0--2h-3h-0--0--0--0--3h-5-------|
  .  .  .           .  .  .

----------------------------------------|
----------------------------------------|
----------------------------------------|
----------------------------------------|
--------------------8--7--5--------5----|
--0--0--0--2h-3h-0-----------8--7-------|
  .  .  .

----------------------------------------|
----------------------------------------|
----------------------------------------|
----------------------------------------|
----------------------------------------|
--0--0--0--3--3--3--2--2--2/-8--8--8----|
  .  .  .

----------------------------------------||
----------------------------------------||
----------------------------------------||
----------------------------------------||
--------------------8--7--5--------5----||
--7--7--7--7--7--7-----------8--7-------||

Pre Chorus

----------------------------------------------------|
----------------------------------------------------|
----------------------------------------------------|
----------------------------------------------------|
--0-----------0-----------0--0--0--0--0-------------|
--0-----------0-----------0--0--0--0--0-------------|
  .           .           .  .  .  .  .

----------------------------------------------------|
----------------------------------------------------|
----------------------------------------------------|
----------------------------------------------------|
--------0-----0-----------0--0--0--0--0-----0-------|
--------0-----0-----------0--0--0--0--0-----0-------|
        .     .           .  .  .  .  .     .

----------------------------------------------------|
----------------------------------------------------|
----------------------------------------------------|
--------------------------------------------8-------|
--0-----------0-----------0--0--0--0--0-----5-------|
--0-----------0-----------0--0--0--0--0-----5-------|
  .           .           .  .  .  .  .

----------------------------|
----------------------------|
----------------------------|
-----8--8--11----11-11-11---|
-----5--5--7-----7--7--7----|
-----5--5--7-----7--7--7----|

----------------------------------------------------|
----------------------------------------------------|
----------------------------------------------------|
----------------------------------------------------|
--0-----------0-----------0--0--0--0--0-------------|
--0-----------0-----------0--0--0--0--0-------------|
  .           .           .  .  .  .  .

----------------------------------------------------|
----------------------------------------------------|
----------------------------------------------------|
----------------------------------------------------|
--------0-----0-----------0--0--0--0--0-----0-------|
--------0-----0-----------0--0--0--0--0-----0-------|
        .     .           .  .  .  .  .     .

----------------------------------------------------|
----------------------------------------------------|
----------------------------------------------------|
--------------------------------------------8-------|
--0-----------0-----------0--0--0--0--0-----5-------|
--0-----------0-----------0--0--0--0--0-----5-------|
  .           .           .  .  .  .  .

----------------------------||
----------------------------||
----------------------------||
-----8--8--11----11-x-------||
-----5--5--7-----7--x-------||
-----5--5--7-----7--x-------||

Chorus

----------------------------------------------------|
----------------------------------------------------|
--10-10-10-10-10-10-10-10-10-10-10-10-10-10-10-10---|
--0--0--0--0--0--0--0--0--0--0--0--0--0--0--0--0----|
--0--0--0--0--0--0--0--0--0--0--0--0--0--0--0--0----|
--0--0--0--0--0--0--0--0--0--0--0--0--0--0--0--0----|

----------------------------------------------------|
----------------------------------------------------|
----------------------------------------------------|
--8--8--8--8--8--8--8--8--8--8--8--8--8--8--8--8----|
--8--8--8--8--8--8--8--8--8--8--8--8--8--8--8--8----|
--8--8--8--8--8--8--8--8--8--8--8--8--8--8--8--8----|

----------------------------------------------------|
----------------------------------------------------|
----------------------------------------------------|
--5--5--5--5--5--5--5--5--5--5--5--5--5--5--5--5----|
--5--5--5--5--5--5--5--5--5--5--5--5--5--5--5--5----|
--5--5--5--5--5--5--5--5--5--5--5--5--5--5--5--5----|

----------------------------------------------------|
----------------------------------------------------|
----------------------------------------------------|
--7--7--7--7--7--7--7--7----------------------------|
--7--7--7--7--7--7--7--7----------------------------|
--7--7--7--7--7--7--7--7/-11-11-11-11-11-11-11-11---|

----------------------------------------------------|
----------------------------------------------------|
--10-10-10-10-10-10-10-10-10-10-10-10-10-10-10-10---|
--0--0--0--0--0--0--0--0--0--0--0--0--0--0--0--0----|
--0--0--0--0--0--0--0--0--0--0--0--0--0--0--0--0----|
--0--0--0--0--0--0--0--0--0--0--0--0--0--0--0--0----|

----------------------------------------------------|
----------------------------------------------------|
----------------------------------------------------|
--8--8--8--8--8--8--8--8--8--8--8--8--8--8--8--8----|
--8--8--8--8--8--8--8--8--8--8--8--8--8--8--8--8----|
--8--8--8--8--8--8--8--8--8--8--8--8--8--8--8--8----|

----------------------------------------------------|
----------------------------------------------------|
----------------------------------------------------|
--5--5--5--5--5--5--5--5--5--5--5--5--5--5--5--5----|
--5--5--5--5--5--5--5--5--5--5--5--5--5--5--5--5----|
--5--5--5--5--5--5--5--5--5--5--5--5--5--5--5--5----|

----------------------------|
----------------------------|
----------------------------|
--7--7--7--7--7--7--7--7----|
--7--7--7--7--7--7--7--7----|
--7--7--7--7--7--7--7--7/---|

Chorus 1 end on:

----------------------------||
----------------------------||
----------------------------||
----------------------------||
--------------------0-------||
--11-11-11-11-11-11-0-------||
                    .

Chorus 2 end on:

----------------------------||
----------------------------||
----------------------------||
----------------------------||
--------------0--0--0-0-0-0-||
--11-11-11-11-0--0--0-0-0-0-||
              .  .  . . . .

Bridge

----------------------------|----------------------------|
----------------------------|----------------------------|
----------------------------|----------------------------|
----------------------------|----------------------------|
----------------------------|--------------------0--0----|
--12-12-12-12-12-0--8--8----|--8--8--8--8/-11-11-0--0----|
                                                 .  .

----------------------------|----------------------------|
----------------------------|----------------------------|
----------------------------|----------------------------|
----------------------------|----------------------------|
----------------------------|--------------0--0--0-0-0-0-|
--12-12-12-12-12-0--8--8----|--8--8--8--8--0--0--0-0-0-0-|
                                           .  .  . . . .

----------------------------|----------------------------|
----------------------------|----------------------------|
----------------------------|----------------------------|
----------------------------|----------------------------|
----------------------------|--------------------0--0----|
--12-12-12-12-12-0--8--8----|--8--8--8--8/-11-11-0--0----|
                                                 .  .

----------------------------|----------------------------||
----------------------------|----------------------------||
----------------------------|----------------------------||
----------------------------|----------------------------||
----------------------------|----------------------------||
--12-12-12-12-12-0--8--8----|--8--8--8--8----------------||

(Chorus)

Chorus 3 end on:

----------------------------||
----------------------------||
----------------------------||
----------------------------||
--------------0--0--0--0----||
--11-11-11-11-0--0--0--0----||
              .  .  .  .

Outro

----------------------------------------------------|
----------------------------------------------------|
----------------------------------------------------|
----------------------------------------------------|
--0-----------0-----------0--0--0--0--0-------------|
--0-----------0-----------0--0--0--0--0-------------|
  .           .           .  .  .  .  .

----------------------------------------------------|
----------------------------------------------------|
----------------------------------------------------|
----------------------------------------------------|
--------0-----0-----------0--0--0--0--0-----0-------|
--------0-----0-----------0--0--0--0--0-----0-------|
        .     .           .  .  .  .  .     .

----------------------------------------------------|
----------------------------------------------------|
----------------------------------------------------|
--------------------------------------------8-------|
--0-----------0-----------0--0--0--0--0-----5-------|
--0-----------0-----------0--0--0--0--0-----5-------|
  .           .           .  .  .  .  .

----------------------------|
----------------------------|
----------------------------|
-----8--8--11----11-11-11---|
-----5--5--7-----7--7--7----|
-----5--5--7-----7--7--7----|

----------------------------------------------------|
----------------------------------------------------|
----------------------------------------------------|
----------------------------------------------------|
--0-----------0-----------0--0--0--0--0-------------|
--0-----------0-----------0--0--0--0--0-------------|
  .           .           .  .  .  .  .

----------------------------------------------------|
----------------------------------------------------|
----------------------------------------------------|
----------------------------------------------------|
--------0-----0-----------0--0--0--0--0-----0-------|
--------0-----0-----------0--0--0--0--0-----0-------|
        .     .           .  .  .  .  .     .

----------------------------------------------------|
----------------------------------------------------|
----------------------------------------------------|
----------------------------------------------------|
--0-----------0-----------0--0--0--0--0-------------|
--0-----------0-----------0--0--0--0--0-------------|
  .           .           .  .  .  .  .

----------------------------||
----------------------------||
----------------------------||
----------------------------||
-----0--0-------------------||
-----0--0-------------------||
     .  .

End electric guitar 1

Electric guitar 2 - Lead

Intro
Clean)

----------------------------------------|
----------------------------------------|
----------------------------------------|
----------------------------------------|
--------------------8--7--5--------5----|
-----------------------------8--7-------|

----------------------------------------|
----------------------------------------|
----------------------------------------|
----------------------------------------|
-----------------------------------3----|
--0--0--0--2h-3h-0--0--0--0--3h-5-------|
  .  .  .           .  .  .

----------------------------------------|
----------------------------------------|
----------------------------------------|
----------------------------------------|
--------------------8--7--5--------5----|
--0--0--0--2h-3h-0-----------8--7-------|
  .  .  .

Verse
Clean)
This is just a small riff at the end of each verse

--13-13-13-12-12-12-10-10-10-9-9-9-10-9-10-12-10-12-13\-|
--------------------------------------------------------|
--------------------------------------------------------|
--------------------------------------------------------|
--------------------------------------------------------|
--------------------------------------------------------|

Pre Chorus (Distorted)

----------------------------|
----------------------------|
--9--------9--------9-------|
--x--------x--------x-------|
--7--------7--------7-------|
----------------------------|

----------------------------------------------------|
----------------------------------------------------|
--9--------------------10----10-10-10-10/12-12-12---|
--x--------------------x-----x--x--x--x-----x--x----|
--7--------------------8-----8--8--8--8/-10-10-10---|
----------------------------------------------------|

----------------------------|
----------------------------|
--9--------9--------9-------|
--x--------x--------x-------|
--7--------7--------7-------|
----------------------------|

----------------------------------------------------|
----------------------------------------------------|
--9--------------------10----10-10-10-10/12---------|
--x--------------------x-----x--x--x--x-------------|
--7--------------------8-----8--8--8--8/-10---------|
----------------------------------------------------|

Chorus

----------------------------------------------------|
----------------------------------------------------|
--9--9--9--9--9--9--9--9--9--9--9--9--9--9--9--9----|
--x--x--x--x--x--x--x--x--x--x--x--x--x--x--x--x----|
--7--7--7--7--7--7--7--7--7--7--7--7--7--7--7--7----|
----------------------------------------------------|

----------------------------------------------------|
----------------------------------------------------|
--12-12-12-12-12-12-12-12-12-12-12-12-12-12-12-12---|
--x--x--x--x--x--x--x--x--x--x--x--x--x--x--x--x----|
--10-10-10-10-10-10-10-10-10-10-10-10-10-10-10-10---|
----------------------------------------------------|

----------------------------------------------------|
----------------------------------------------------|
--15-15-15-15-15-15-15-15-15-15-15-15-15-15\12-12---|
--x--x--x--x--x--x--x--x--x--x--x--x--x--x--x--x----|
--13-13-13-13-13-13-13-13-13-13-13-13-13-13\10-10---|
----------------------------------------------------|

----------------------------------------------------|
----------------------------------------------------|
--17-17-17-17-17-17-17-17\12-12-12-12-12-12-12-12---|
--x--x--x--x--x--x--x--x--x--x--x--x--x--x--x--x----|
--15-15-15-15-15-15-15-15\10-10-10-10-10-10-10-10---|
----------------------------------------------------|

----------------------------------------------------|
----------------------------------------------------|
--9--9--9--9--9--9--9--9--9--9--9--9--9--9--9--9----|
--x--x--x--x--x--x--x--x--x--x--x--x--x--x--x--x----|
--7--7--7--7--7--7--7--7--7--7--7--7--7--7--7--7----|
----------------------------------------------------|

----------------------------------------------------|
----------------------------------------------------|
--12-12-12-12-12-12-12-12-12-12-12-12-12-12-12-12---|
--x--x--x--x--x--x--x--x--x--x--x--x--x--x--x--x----|
--10-10-10-10-10-10-10-10-10-10-10-10-10-10-10-10---|
----------------------------------------------------|

----------------------------------------------------|
----------------------------------------------------|
--15-15-15-15-15-15-15-15-15-15-15-15-15-15\12-12---|
--x--x--x--x--x--x--x--x--x--x--x--x--x--x--x--x----|
--13-13-13-13-13-13-13-13-13-13-13-13-13-13\10-10---|
----------------------------------------------------|

----------------------------------------------------|
----------------------------------------------------|
--17-17-17-17-17-17-17-17\12-12-12-12-12-12---------|
--x--x--x--x--x--x--x--x--x--x--x--x--x--x----------|
--15-15-15-15-15-15-15-15\10-10-10-10-10-10---------|
----------------------------------------------------|

Bridge
Clean)
This comes in halfway through the bridge

----------------------------------------------------|
----------------------------------------------------|
----------------------------------------------------|
----------------------------------------------------|
--8--8--8--8--8--8--5--5--5--5--5--5--7--7----------|
----------------------------------------------------|

----------------------------------------------------|
----------------------------------------------------|
----------------------------------------------------|
----------------------------------------------------|
--8--8--8--8--8--8--5--5--5--5--5--5----------------|
----------------------------------------------------|

Outro
Distorted)

----------------------------|
----------------------------|
--9--------9--------9-------|
--x--------x--------x-------|
--7--------7--------7-------|
----------------------------|

----------------------------------------------------|
----------------------------------------------------|
--9--------------------10----10-10-10-10/12-12-12---|
--x--------------------x-----x--x--x--x-----x--x----|
--7--------------------8-----8--8--8--8/-10-10-10---|
----------------------------------------------------|

----------------------------|
----------------------------|
--9--------9--------9-------|
--x--------x--------x-------|
--7--------7--------7-------|
----------------------------|

End electric guitar 2

Order/Road Map:

Intro, Verse, Pre Chorus, Chorus 1, Verse, Pre Chorus, Chorus 2, Bridge,
Chorus 3, Outro'

And that just about sums it up! I'm rootin' for ya; Ready, Set, Fall!
Good luck!