Misc. Unsigned Bands - Red Free - Take Living Text Guitar Tab

Learn the song with the online tablature player
E(---0------0------0------0----------------------------------]
B(------0------0------0------0---3------3------3------3------]
G(----------------------------------0------0------0------0---]
D(-----------------------------------------------------------]
A(---3------3------3------3------2------2------2------2------]
E(-----------------------------------------------------------]

E(---0------0------0------0----------------------------------]
B(------0------0------0------0---3------3------3------3------]
G(----------------------------------0------0------0------0---]
D(-----------------------------------------------------------]
A(---3------3------3------3------2------2------2------2------]
E(-----------------------------------------------------------]

E(---0------0------5-3-0-------5-3-0-------------------------]
B(------0------0---0-0-0-3-5---0-0-0-3-0-0-----3------3------]
G(-----------------------0-0---------0-0---0------0------0---]
D(-----------------------------------------------------------]
A(---3------3----------------------------------2------2------]
E(-----------------------------------------------------------]

E(------------------------0---------------------------0------]
B(---2------2------3---------0---6------8------6-------------]
G(------0------0---0---0------------0------0------0------0---]
D(-----------------------------------------------------------]
A(---1------1------2------3------5------7------5------3------]
E(-----------------------------------------------------------]

E(-----------------3]
B(---3------2------0]
G(------0------0---0]
D(-----------------0]
A(---2------1------2]
E(-----------------3]

              repeat whole song once more. And please rate