Misc. Unsigned Bands - Redcoats - Giants Text Guitar Tab

Learn the song with the online tablature player
                             Redcoats - Giants

This band is awesome but there's no other tabs on it so i figured it out and here it is.
Its the riff that is played through most of the song and verses.

E----------------------------------------------------------|
B----------------------------------------------------------|
G----------------------------------------------------------| x2
D----------------------------------------------------------|
A---2----5--------5--5/7--5/4---2--------------------------|
E---0^3-----3-----3--3/5--3/2---0--------------------------|

E----------------------------------------------------------|
B----------------------------------------------------------|
G----------------------------------------------------------| x4
D----------------------------------------------------------|
A-------5--------------------------------------------------|
E---0^3---3-5^3--------------------------------------------|

Repeat.