Misc. Unsigned Bands - Rediscover - Shake It Text Guitar Tab

Learn the song with the online tablature player
Intro/ Chorus:
e ------------------------------------------|
B-------------------------------------------|
G-------7-----------------------------------|
D-------7--x8----7--x8---9--x8----7--x8-----|
A-------5--------7-------9--------7---------|
E----------------5-------7--------5---------|

Verse 1
e --------------------------------------------------------------------|
B---------------------------------------------------------------------|
G-------7-7-- (7)/-----------------------------------------7----------|
D-------7-7-- (7)/---4-4--(4)/---7-7--(7)/---9-9--(9)/---7-7----------|
A-------5-5-- (5)/---4-4--(4)/---7-7--(7)/---9-9--(9)/---7-5----------|
E--------------------2-2--(2)/---5-5--(5)/---7-7--(7)/---5------------|

Chorus
e ------------------------------------------|
B-------------------------------------------|
G-------7-----------------------------------|
D-------7--x8----7--x8---9--x8----7--x8-----|
A-------5--------7-------9--------7---------|
E----------------5-------7--------5---------|

Verse 2
e --------------------------------------------------------------------------------|
B---------------------------------------------------------------------------------|
G-------7-7-- (7)/----------------------------------------------------7-7--(7)----|
D-------7-7-- (7)/----4-4--(4)/---7-7--(7)/---9-9--(9)/---7-7--(7)/---7-7--(7)----|
A-------5-5-- (5)/----4-4--(4)/---7-7--(7)/---9-9--(9)/---7-7--(7)/---5-5--(5)----|
E---------------------2-2--(2)/---5-5--(5)/---7-7--(7)/---5-5--(5)/---------------|

Verse 2 Pre-chorus:
e --------------------|
B---------------------|
G---------------------|
D-------7~7/9~ 9------|
A-------7~7/9~ 9------|
E-------5~5/7~ 7------|

Chorus
e ------------------------------------------|
B-------------------------------------------|
G-------7-----------------------------------|
D-------7--x8----7--x8---9--x8----7--x8-----|
A-------5--------7-------9--------7---------|
E----------------5-------7--------5---------|

Bridge
e --------------------------------------------------------------------------|
B---------------------------------------------------------------------------|
G----------------------7---------------------------------7------------------|
D-------4-------7------7---------7-------4-------7-------7--------2---------|
A-------4--x4---7--x4--5--x4-----7--x4---4--x4---7--x4---5--x4----2--x4-----|
E-------2-------5----------------5-------2-------5----------------0---------|

e -------------------------------------------------------------------|
B--------------------------------------------------------------------|
G--------------------------------------------------------------------|
D-------4-4-4--4-4--7-7-7--7-7--9-9-9--9-9---2-2-2--2-2--------------|
A-------4-4-4--4-4--7-7-7--7-7--9-9-9--9-9---2-2-2--2-2--------------|
E-------2-2-2--2-2--5-5-5--5-5--7-7-7--7-7---0-0-0--0-0--------------|

Chorus
e ------------------------------------------|
B-------------------------------------------|
G-------7-----------------------------------|
D-------7--x8----7--x8---9--x8----7--x8-----|
A-------5--------7-------9--------7---------|
E----------------5-------7--------5---------|

Outro/Verse:
e --------------------------------------------------------------------|
B---------------------------------------------------------------------|
G-------7-7-- (7)/------------------------------------------7---------|
D-------7-7-- (7)/----4-4--(4)/---7-7--(7)/---9-9--(9)/---7-7---------|
A-------5-5-- (5)/----4-4--(4)/---7-7--(7)/---9-9--(9)/---7-5---------|
E---------------------2-2--(2)/---5-5--(5)/---7-7--(7)/---5-----------|

Key:
~ - Let Ring
/ - Slide
(_) – Optinal
x# - number of times strummed (You can strum your own way, just stay in the timing or
number of strums)

e ------|
B-------|
G-------|
D-------|
A-------|
E-------|