Misc. Unsigned Bands - Rejected Scums - Kebebasan Text Guitar Tab

Learn song with the online tabulature player
-------------------------------------------------------------------------------
                             Kebebasan - Rejected Scums
-------------------------------------------------------------------------------
Tabbed by:romeo369
Email:mat_kental91@hotmail.com

Tuning:EADGBE

gd luck!

repeat2x
e|---------------------------------------------------------------------------|
B|8~-6------6-8-9~--8-9-8-6--6----------6-8-6-8-6--6-8-6---6-8-9-8-9-8-6--6--|
G|-----8-8------------------8----8-7~--8----------8------8---------------8---|
D|---------------------------------------------------------------------------|
A|---------------------------------------------------------------------------|
E|---------------------------------------------------------------------------|

e|------6----------|------------------------------------------------------------------|
B|--6-----9-8-9-8-6|------------------------------------------------------------------|
G|-8--8------------|------------------------------------------------------------------|
D|-----------------|------------------------------------------------------------------|
A|-----------------|------------------------------------------------------------------|
E|-----------------|------------------------------------------------------------------|