Misc. Unsigned Bands - Renegades Of Rock - Rosa Lee Text Guitar Tab

Learn song with the online tabulature player
|------------|
|------------|
|------------|
|------------|X2
|----7-----5-|
|--5---3-3---|

|---------------------------|
|---------------------------|
|---------------------------|Throughout verse
|---------------------------|
|------7------------5-------|
|--5-5---5-5-5--3-3---3-3-3-|

|---------------------------------------|
|---------------------------------------|
|---------------------------------------|
|-------------------5-------------------|
|------7--------5/7--------7-------/7-6-|
|--5-5----5-3-3--------5-5---5-3-3------|