Misc. Unsigned Bands - Resurrection Mary - Killa Katrina Text Guitar Tab

Learn the song with the online tablature player
                             KILLA KATRINA - Resurrection Mary

Intro Riff/Screaming Part
e|--------------------------------------------------------------------------|
B|--------------------------------------------------------------------------|
G|--------------------------------------------------------------------------|
D|---------------7--------------7---5p4------------7--------------7~--------|
A|-----4h5p4h5-------4h5p4h5--------------4h5p4h5-------4h5p4h5-------------|
D|--------------------------------------------------------------------------|

e|---------------------------------------------------------------------------|
B|---------------------------------------------------------------------------|
G|----------------------------------------------------------------7~---------|
D|---------------7--------------7---5p4------------7-------------------------|
A|-----4h5p4h5-------4h5p4h5--------------4h5p4h5-------4h5p4h5--------------|
D|---------------------------------------------------------------------------|

Singing Part
e|---------------------------------------------------------------------------|
B|---------------------------------------------------------------------------|
G|----7------4-------2-------9999999999--------------------------------------|
D|----x------x-------2-------xxxxxxxxxx--------------------------------------|
A|----5------2-------0-------7777777777--------------------------------------|
D|---------------------------------------------------------------------------|

Bridge
e|---------------------------------------------------------------------------|
B|---------------------------------------------------------------------------|
G|----7------4-------2-------9999999999/-------------------------------------|
D|----x------x-------2-------xxxxxxxxxx/-----0--0--0--0----------------------|
A|----5------2-------0-------7777777777/-----0--0--0--0----------------------|
D|-------------------------------------------0--0--0--0----------------------|

GUESS WHAT SHUT UP!!!

Breakdown
e|--------------------------------------------------------------------------|
B|--------------------------------------------------------------------------|
G|--------------------------------------------------------------------------|
D|--------------------------------------------------------------------------|
A|------------3----------------------------------3--------------------------|
D|--00--00--3-----3p2h3---00--00------00--00--3------3p2h3-----00--00-------|

There are a bunch of random bends and harmonics in here.

Outro
e|--------------------------------------------------------------------------|
B|--------------------------------------------------------------------------|
G|--------------------------------------------------------------------------|
D|------5~---7~----5~---7~--------------------------------------------------|
A|--------------------------5~----------------------------------------------|
D|--------------------------------------------------------------------------|

Order:
Intro Riff/Screaming Part - 3 times
Singing Part - 2 times
Intro Riff/Screaming Part - 1 time
Singing Part - 2 times

Bridge
1 time

Breakdown
???
Intro Riff/Screaming Part - 1 time then clap then another two times
Outro

| /  slide up
| \  slide down
| h  hammer-on
| p  pull-off
| ~  let ring
| +  harmonic
| x  Mute note