Misc. Unsigned Bands - Revive The Dead - Bloodrayne Text Guitar Tab

Learn the song with the online tablature player
INTRO
----------12-9------------11-8------------10-7------7-5-----------|
------12-9----12-9----11-8----11-8----10-7----10-7-----7-5--------|
-12-9-------------11-8------------10-7--------------------7-5-----|
--------------------------------------------------------------7-5-|
------------------------------------------------------------------|
------------------------------------------------------------------|

VERSE
------------------------|
------------------------|
------------------------|
-3-3-2-4-4-3-3----------|
-3-3-2-4-4-3-3----------|
-1-1-0-2-2-1-3----------|
CHOURUS:

-----------------|
-----------------|
-----------------|
-3-3-2-2-7-7-5-5-|
-3-3-2-2-7-7-5-5-|
-1-1-0-0-5-5-3-3-|
BRIDGE

-------|
-------|
-------|
-5-2-3-|
-5-2-3-|
-3-0-1-|
Solo

-9b-12------10-------------------------12------------------------9-12-11-10-|
-------10-11--------16--------12-10-------10-----------9-12-11-10-----------|
--------------12-10---13-14-15------12-------9-12-11-10---------------------|
----------------------------------------------------------------------------|
----------------------------------------------------------------------------|
----------------------------------------------------------------------------|
SOlo X2

-9-8-7-6---------------------------------------------|
--------9-8-7-6--------------------------------------|
----------------9-8-7-6------------------------------|
------------------------9-8-7-6---------------------2|
-------------------------------9-8-7-6--------------2|
--------------------------------------9-8-7-6-3-2-1-0|