Misc. Unsigned Bands - Revive The Dead - Fragments Of Faith Text Guitar Tab

Learn the song with the online tablature player
Intro

-0-0-0-0-15------12------------------7--|
-0-0-0-0---14--12--14--------------10---|
-0-0-0-0-----13------16----------16-----|
-2-1-1-2-------------15------15---------|
-2-1-1-2---------------13--11-----------|
-0-1-1-0-------------------12-----------|
_____________________________________________________________________
VERSE

---------------|
---------------|
---------------|
-1-3-0-2-2-5-3-|
-1-3-0-2-2-5-3-|
-1-3-0-2-2-5-3-|
________________________________________________________________________
Pre Chourus:

-------------|
-------------|
-------------|
-1-2-3-2-1-0-|
-1-2-3-2-1-0-|
-1-2-3-2-1-0-|
_________________________________________________________________________
Chourus:

-------------------|
-------------------|
-------------------|
-5-3-1-3-5-7---0-0-|
-5-3-1-3-5-7---0-0-|
-5-3-1-3-5-7---0-0-|
__________________________________________________________________________
Solo

------9---6----10-11-------16-11----17--------------14-13-12-11----------|
-------8---5---8---12----15-----18----15----------16-----------11-10-9-8-|
--------7---4-9-----14-12---------19----11------11-----------------------|
-1-1-0------------------------------------10--12-------------------------|
-1-1-0--------------------------------------15---------------------------|
-1-1-0-------------------------------------------------------------------|
___________________________________________________________________________
Solo

-----------------8-9-10-11-------------14-13-12-11-|
---------4-5-6-7-----------12-13-14-15-------------|
-7-6-5-4-------------------------------------------|
---------------------------------------------------|
---------------------------------------------------|
---------------------------------------------------|