Misc. Unsigned Bands - Rhett Link - Econimy Bailout Song Text Guitar Tab

Learn the song with the online tablature player
E|--------------------------------------------------------|
B|--------6-----6----5--------5h6-------6-----6---5-------|
G|-----7-----7-----------6----------7------7----------6---|
D|-----7-----------------7----------7-----------------7---|
A|--5-------------------------5---------------------------|
E|-------------------5----------------------------5-------|

E|--------------------------------------------------------|
B|--5h6-------6-----6---5-------5h6-------6-----6---------|
G|--------7------7----------6--------7-------7------------|
D|--------7-----------------7--------7--------------------|
A|--5---------------------------5-------------------------|
E|----------------------5---------------------------------|

after they say "but the faithful feds" it does this part and
a few other times.

E|--------------------------------------------------------|
B|--------------------4s6---------------------------------|
G|------6---6--------------7------------------------------|
D|---7----7------5---------7------------------------------|
A|---7-----------5---------5------------------------------|
E|-5----------3-------------------------------------------|