Misc. Unsigned Bands - Riffa - Made-up Song Text Guitar Tab

Learn the song with the online tablature player
Hey- i made this up when i was alone jammin' one day.  It's composed mainly of power chords, but play the riffs clean (they sound way better), and the chords with distortion, especially if they're power chords.  If you don't want it, just delete it or something.  If you do, then put it out.  Either way, thanx.

INTRO
x6)
1--------------------------------------------------
2--------------------------------------------------
3--------------------------------------------------
4--------------------------------------------------
5---5---5---6---5----------------------------------
6---3---3---4---3----------------------------------

VERSE
x5)
1--------------------------------------------------
2--------------------------------------------------
3--------------------------------------------------
4-------4------------------------------------------
5---4---5---3--------------------------------------
6---4---5---1--------------------------------------

RIFF A
x1)
1-14---14----14--------------------------------------
2---10----10---10-14------14-----14------------------
3---------------------10------10---10----------------
4----------------------------------------------------
5----------------------------------------------------
6----------------------------------------------------

INTRO
x2)

VERSE
x5)

INTERLUDE
x1)(*The strums go down, down, up, down, up, down, up, down)  Do that with these chords:
1-3
2----------------------------------------------------
3----1------------------------------------------------
4----2-----------------------------------------------
5-2--2-----------------------------------------------
6-3--------------------------------------------------

RIFF B
x1)
1-5-5-----6-6---------------------------------------
2-----4---------------------------------------------
3---------------------------------------------------
4--------------------4------------------------------
5---------------5-5--------6-6----------------------

OUTRO
x3)
1----------------------------------------------------
2----------------------------------------------------
3----------------------------------------------------
4----------------------------------------------------
5-1--7(let this ring)--------------------------------
6-1--5-----------------------------------------------