Misc. Unsigned Bands - Rizal Underground - Come Around Again Text Guitar Tab

Learn the song with the online tablature player
||---------------------------------------------||
          ||    Come around again - Rizal Underground    ||
          ||---------------------------------------------||

 Rizal Underground - Philippines' rock band compose of 4
                     members.Stephen Liu on lead vocals,
                     Angelo Villegas on bass guitar/vocals,
                     Mike Villegas on guitars/vocals and
                     Harley Alarcon on drums.One of the best
                     rocking band in the land of the Jeepney.
                     "Come around again" is my favorite cut
                     in their self-titled debut album.

Intro
A D
 Intro riff

     A                            D/A
e|----------------------------------------------2-2-2-2-|
B|----------------------------------------------3-3-3-3-|
G|-------2-----------2--2-2-2-2--------------2--2-2-2-2-|
D|-------2---------2----2-2-2-2------------2----0-0-0-0-|2x
A|---0-0-0--2/4-0-------0-0-0-0---0--2/4-0--------------|
E|------------------------------------------------------|

solo

e|------------9-10-12--12---10-9--9h10--9---------------|
B|----9-10-12------------------------------10-----------|
G|-11-----------------------------------------9-(9)-----|
D|------------------------------------------------------|
A|------------------------------------------------------|
E|------------------------------------------------------|

e|----------9/10--9-----------------------9/10--9-------|
B|------10----------10/12-------------10----------10/12-|
G|-9h11-------------------9-(9)--9h11-------------------|
D|------------------------------------------------------|
A|------------------------------------------------------|
E|------------------------------------------------------|

e|------------------------------------------------------|
B|-----------------------------------10/12-10-----------|
G|-7p6-----------------------9-9-(9)-----------7-9/11-9-|
D|-----9p7----6h7---------------------------------------|
A|---------9--------------------------------------------|
E|------------------------------------------------------|

e|------------------12/14--12-12-(12)-12----------------|
B|----12/14-12---10-------------------------------------|
G|-11---------------------------------------------------|
D|------------------------------------------------------|
A|------------------------------------------------------|
E|------------------------------------------------------|

     F#m7          C#7          B7
e|----9-----|  |----9----|  |----7----|
B|----10----|  |----9----|  |----7----|
G|----9-----|  |----10---|  |----8----|
D|----11----|  |----9----|  |----7----|
A|----9-----|  |----11---|  |----9----|
E|----9-----|  |----9----|  |----7----|
   9th fret      9th fret     7th fret

REfrain
F#m7 C#7
          F#m7 B7
          F#m7 E D

Chorus
A E D
          A E F#m G A E D

| /  slide up      (0)  ghost note
| \  slide down
| h  hammer-on
| p  pull-off
| ~  vibrato
| +  harmonic
| x  Mute note