Misc. Unsigned Bands - Road Crows - Frizenpick Text Guitar Tab

Learn song with the online tabulature player
(/) Slide Up  (\) Slide Down  (h) Hammer On  (p) Pull Off  (b) Bend (r) Release (v) Vibrato


E|------------------------------------------------------|
B|-----------0-------------------------0----------------|
G|--------0-------------------------0-------------------|
D|-----5-----------4--5p4--------2----------------------|
A|--7-----------5----------5--3--------------2--3p2-----|
E|----------------------------------------3----------3--|

E|-------------------------------------------------|
B|-------------------------------------------------|
G|----------0-----------0-----------0-----------0--|
D|-------0-----------0-----------0-----------0-----|    Repeat
A|----3-----------5-----------7-----------5--------|
E|-5-----------7-----------8-----------7-----------|
                                                        http://www.guitartabcreator.com