Misc. Unsigned Bands - Robb Flynn - Die Young Text Guitar Tab

Learn the song with the online tablature player
                             DIE YOUNG - ROBB FLYNN

First tab, saw some requests for it so I thought Id do my part for the website,
strumming patterns arent hard to figure.

My respects to Black Sabbath, Robb Flynn, and Debbie Abono.

e|0---------------3--5-------0---------------0--2--------|
B|0---------------3--3-------0---------------1--3--------|
G|0---------------0--2-------0---------------0--2--------|
D|2--2-2-2-2-2-2--0--0-------2--2-2-2-2-2-2--2--0--5p4---|
A|2---------------2----------2---------------3-----------|
E|0---------------3----3h5---0---------------------------|

e|0---------------3--5-------0---------------------2|
B|0---------------3--3-------0---------------------3|
G|0---------------0--2-------0---------------------2|
D|2--2-2-2-2-2-2--0--0-------2--2-2-2-2-2-2-/5p4---0|
A|2---------------2----------2----------------------|
E|0---------------3----3h5---0----------------------|

  Gather the wind, though the wind wont help you fly at
e|0----------------0--------------------2---------------|
B|0----------------1--------------------3---------------|
G|0----------------0--------------------2---------------|
D|2----------------2--------------------0---------------|
A|2----------------3------------------------------------|
E|0-----------------------------------------------------|

  All,               Your backs to the wall.
e|0---------------3--5-------0---------------------2|
B|0---------------3--3-------0---------------------3|
G|0---------------0--2-------0---------------------2|
D|2--2-2-2-2-2-2--0--0-------2--2-2-2-2-2-2-/5p4---0|
A|2---------------2----------2----------------------|
E|0---------------3----3h5---0----------------------|

  Then chain the sun, as it turns around to face you as you
e|0-------------------------0---------------2-------------|
B|0-------------------------1---------------3-------------|
G|0-------------------------0---------------2-------------|
D|2-------------------------2---------------0-------------|
A|2-------------------------3-----------------------------|
E|0-------------------------------------------------------|

  Run, you run, you run
e|0--------0--------2- |
B|0--------1--------3--|
G|0--------0--------2--|
D|2--------2--------0--|
A|2--------3-----------|
E|0--------------------|

e|0---------------3--5-------0---------------0--2--------|
B|0---------------3--3-------0---------------1--3--------|
G|0---------------0--2-------0---------------0--2--------|
D|2--2-2-2-2-2-2--0--0-------2--2-2-2-2-2-2--2--0--5p4---|
A|2---------------2----------2---------------3-----------|
E|0---------------3----3h5---0---------------------------|

e|0---------------3--5-------0---------------------2|
B|0---------------3--3-------0---------------------3|
G|0---------------0--2-------0---------------------2|
D|2--2-2-2-2-2-2--0--0-------2--2-2-2-2-2-2-/5p4---0|
A|2---------------2----------2----------------------|
E|0---------------3----3h5---0----------------------|

  Behind a smile, theres danger and a promise to be
e|0---------------0-------------------2------------|
B|0---------------1-------------------3------------|
G|0---------------0-------------------2------------|
D|2---------------2-------------------0------------|
A|2---------------3--------------------------------|
E|0------------------------------------------------|

  Told,              You'll never get old.
e|0---------------3--5-------0---------------------2|
B|0---------------3--3-------0---------------------3|
G|0---------------0--2-------0---------------------2|
D|2--2-2-2-2-2-2--0--0-------2--2-2-2-2-2-2-/5p4---0|
A|2---------------2----------2----------------------|
E|0---------------3----3h5---0----------------------|

  Life's fantasy, to be locked away and still think that your
e|0---------------------0---------------2------------|
B|0---------------------1---------------3------------|
G|0---------------------0---------------2------------|
D|2---------------------2---------------0------------|
A|2---------------------3----------------------------|
E|0--------------------------------------------------|

  Free, your free, your free
e|0----------0----------2--|
B|0----------1----------3--|
G|0----------0----------2--|
D|2----------2----------0--|
A|2----------3-------------|
E|0------------------------|

      So live for today,         cause tomorrow never comes.
e|3---2------------------3---2---0--------------------3---2-|
B|3---3------------------3---3---1--------------------3---3-|
G|0---2------------------0---2---0--------------------0---2-|
D|0---0------------------0---0---2--------------------0---0-|
A|2----------------------2-------3--------------------2-----|
E|3----------------------3----------------------------3-----|

e|-----------------------------------|
B|-----------------------------------|
G|-----------------0-----0-----0-----|
D|5-4-2-4-2-0----4---4-4---4-4---4-4-|
A|------------2----------------------|
E|-----------------------------------|

 (Last part is repeated on 4x, listen for it.)
e|------------------------------------| x6
B|----8---7---7--------8---7---10-10--|
G|---9-9---7---7------9-9---7----7----|
D|--9---9---7---7----9---9---7--------|
A|------------------------------------|
E|0----------------0------------------|

                               Someone stopped,
e|--------------------------------------------|
B|----8---7---7--------6---5---5--------------|
G|---9-9---7---7------7-7---5---5------8------|
D|--9---9---7---7----7---7---5---5----9-------|
A|-----------------5-----------------9--------|
E|0--------------------------------0----------|

  The fair.
e|----7---7---7---7---7---7---7---7----|
B|-----8-8-8-8-8-8-8-8-8-8-8-8-8-8-8---|
G|------9---9---9---9---9---9---9---9--|
D|-------------------------------------|
A|-------------------------------------|
E|-------------------------------------|

 x2
e|--------7---7--------------------------------7---7-----------------------|
B|-----8-8-8-8-8-8--------------------------8-8-8-8-8-8--------------------|
G|------9---9---9--7/9-x-x-----x-x-7-7-------9---9---9--7/9-x-x-------7-7--|
D|7/9--------------5/7-x-x-4/5-x-x-5-4-7/9--------------5/7-x-x-4/5---5-4--|
A|5/7------------------x-x-2/3-x-x-----5/7------------------x-x-2/3-5------|
E|------------------------------------------------------------------3------|

e|0-----0-----0--|
B|1-----0-----1--|
G|2-----0-----0--|
D|2-----2-----2--|
A|0-----2-----3--|
E|------0--------|

e|0---------------3--5-------0---------------0--2--------|
B|0---------------3--3-------0---------------1--3--------|
G|0---------------0--2-------0---------------0--2--------|
D|2--2-2-2-2-2-2--0--0-------2--2-2-2-2-2-2--2--0--5p4---|
A|2---------------2----------2---------------3-----------|
E|0---------------3----3h5---0---------------------------|

e|0---------------3--5-------0---------------------2|
B|0---------------3--3-------0---------------------3|
G|0---------------0--2-------0---------------------2|
D|2--2-2-2-2-2-2--0--0-------2--2-2-2-2-2-2-/5p4---0|
A|2---------------2----------2----------------------|
E|0---------------3----3h5---0----------------------|

  Gather the wind, though the wind wont help you fly at
e|0----------------0--------------------2---------------|
B|0----------------1--------------------3---------------|
G|0----------------0--------------------2---------------|
D|2----------------2--------------------0---------------|
A|2----------------3------------------------------------|
E|0-----------------------------------------------------|

  All,               Your backs to the wall.
e|0---------------3--5-------0---------------------2|
B|0---------------3--3-------0---------------------3|
G|0---------------0--2-------0---------------------2|
D|2--2-2-2-2-2-2--0--0-------2--2-2-2-2-2-2-/5p4---0|
A|2---------------2----------2----------------------|
E|0---------------3----3h5---0----------------------|

  Then chain the sun, as it turns around to face you as you
e|0-------------------------0---------------2-------------|
B|0-------------------------1---------------3-------------|
G|0-------------------------0---------------2-------------|
D|2-------------------------2---------------0-------------|
A|2-------------------------3-----------------------------|
E|0-------------------------------------------------------|

  Run, you run, you run
e|0--------0--------2- |
B|0--------1--------3--|
G|0--------0--------2--|
D|2--------2--------0--|
A|2--------3-----------|
E|0--------------------|

      So live for today,         cause tomorrow never comes.
e|3---2------------------3---2---0--------------------3---2-|
B|3---3------------------3---3---1--------------------3---3-|
G|0---2------------------0---2---0--------------------0---2-|
D|0---0------------------0---0---2--------------------0---0-|
A|2----------------------2-------3--------------------2-----|
E|3----------------------3----------------------------3-----|

  Die Young
e|0----------0----2--| Repeat until finish.
B|0----------1----3--|
G|0----------0----2--|
D|2----------2----0--|
A|2----------3-------|
E|0------------------|

Hope I did it justice, good luck.

| /   slide up
| \   slide down
| h   hammer-on
| p   pull-off
| ~   vibrato
| +   harmonic
| x   Mute note
| b   Bend
| pb  Pre-bend
| br  Bend release
| pbr Pre-bend release
| brb Bend release bend