Misc. Unsigned Bands - Robert Radley - Nothing Text Guitar Tab

Learn the song with the online tablature player
This is the tab for my own arrangement of Nothing by The Script.
This is not OFFICIAL and WILL NOT sound the same as the scripts version of 'Nothing'

Key:
(N) = natural harmonic
 x  + mute string with left hand

Intro

     B5                            G#5       F#5
                                                 (N)
B |------------------------------|---------------------|
F#|------------------------------|----------------7----|
F#|-----12--12---12---12--12---12|---9--9--9---7-----7-|
B |----0------0------0------0----|--0----0----0----0---|
F#|------------------------------|---------------------|
B |--12---12---12--12---12---12--|-9---9--9--7---7--7--|

                 (N)  (N)  (N)
B |-------------------12---------|---------------------|
F#|--------------12--------12----|---------------------|
F#|-----12--12-------------------|---9--9--9---7--7--7-|
B |----0------0----0----0----0---|--0----0----0----0---|
F#|------------------------------|---------------------|
B |--12---12---12---12---12---12-|-9---9--9--7--7---7--|

Verse

     B5                            G#5       F#5

B |------------------------------|---------------------|
F#|------------------------------|---------------------|
F#|-----12--12---12---12--12---12|---9--9--9---7--7--7-|
B |----0------0------0------0----|--0----0----0----0---|
F#|------------------------------|---------------------|
B |--12---12---12--12---12---12--|-9---9--9--7--7---7--| x2

     E5         G#5         F#5       G#5  F#5

B |-----------------------|----------------------|
F#|-----------------------|----------------------|
F#|-----5--5--5---9--9---9|---7--7--7---9----7---|
B |----0----0----0----0---|--0----0----0-0--0-0--|
F#|-----------------------|----------------------|
B |--5----5--5--9---9--9--|-7---7--7--9----7-----|

     E5         G#5         F#5
                                     (N)
B |-----------------------|--------------------- |
F#|-----------------------|-----------7---------.|
F#|-----5--5--5---9--9---9|---7--7--7----------- |
B |----0----0----0----0---|--0----0-------------.|
F#|-----------------------|--------------------- |
B |--5----5--5--9---9--9--|-7---7--7------------ |

Chorus

            B5                F#sus4
strumming
pattern:    v  v  ^^  v v     v  v  ^^  v v
       B |--0--0--00--0-0--|--0--0--00--0-0--|
       F#|--0--0--00--0-0--|--0--0--00--0-0--|
       F#|--7--7--77--7-7--|--5--5--55--5-5--|
       B |--7--7--77--7-7--|--7--7--77--7-7--|
       F#|--5--5--55--5-5--|--x--x--xx--x-x--|
       B |-----------------|--7--7--77--7-7--|

            G#sus4+9          E5+9

       B |--0--0--00--0-0--|--0--0--00--0-0--|
       F#|--0--0--00--0-0--|--0--0--00--0-0--|
       F#|--7--7--77--7-7--|--5--5--55--5-5--|
       B |--9--9--99--9-9--|--5--5--55--5-5--|
       F#|--x--x--xx--x-x--|--x--x--xx--x-x--|
       B |--9--9--99--9-9--|--5--5--55--5-5--|

            B5                F#sus4
strumming
pattern:    v  v  ^^  v v     v  v  ^^  v v
       B |--0--0--00--0-0--|--0--0--00--0-0--|
       F#|--0--0--00--0-0--|--0--0--00--0-0--|
       F#|--7--7--77--7-7--|--5--5--55--5-5--|
       B |--7--7--77--7-7--|--7--7--77--7-7--|
       F#|--5--5--55--5-5--|--x--x--xx--x-x--|
       B |-----------------|--7--7--77--7-7--|

            G#sus4+9          E5+9  F#sus4

       B |--0--0--00--0-0--|--0--0--00--0-0--|
       F#|--0--0--00--0-0--|--0--0--00--0-0--|
       F#|--7--7--77--7-7--|--5--5--77--7-7--|
       B |--9--9--99--9-9--|--5--5--77--7-7--|
       F#|--x--x--xx--x-x--|--x--x--xx--x-x--|
       B |--9--9--99--9-9--|--5--5--77--7-7--|

Bridge

    E5 F#5 G#5        B5

B |--0--0--00--0-0--|--0---0---0-0---0--0--- |
F#|--0--0--00--0-0--|--0---0---0-0---0--0---.|
F#|--5--7--99--9-9--|--12--12--1212--12-12-- |
B |--5--7--99--9-9--|--12--12--1212--12-12--.|x3
F#|--x--x--xx--x-x--|--x---x---x-x---x--x--- |
B |--5--7--99--9-9--|--12--12--1212--12-12-- |

                       (N)
B |--0--0--00--0-0--|--(12)------------------|
F#|--0--0--00--0-0--|--(12)------------------|
F#|--5--7--99--9-9--|--(12)------------------|
B |--5--7--99--9-9--|--(12)------------------|
F#|--x--x--xx--x-x--|--(12)------------------|
B |--5--7--99--9-9--|--(12)------------------|

strumming patterns are the same throughout the chorus' and bridge

Song order:
intro
verse 1
verse 2
chorus
verse 3
chorus

chorus 2
verse chords strummed)

Bridge

verse 1
single chord strum)
chorus

intro
vamp)

hope this helps guys and many thanks for all of your support on youtube.

Rob