Misc. Unsigned Bands - Rock It - Flieg Mit Mir Text Guitar Tab

Learn the song with the online tablature player
Rock It - Flieg Mit Mir

e|----|---------------|
B|----|---------------|
G|----|--drums--------|
D|----|--4-bars-------|
A|----|----------14\--|
E|----|----------12\--|

e|------------------------------------|
B|------------------------------------|
G|--------------4---------------------| 2x
D|--2----6-44---4-22-66-44------------|
A|--2----6-44---2-22-66-44---6-4-2-4--|
E|--0----4-22-----00-44-22------------|

e|-----------------------|----------------------|
B|-----------------------|----------------------| 2x
G|-----------------------|----------------------|
D|------------------444--|----------------------| palm muted
A|--22222-66-444444-222--|--22222-66-444444444--|
E|--00000-44-222222------|--00000-44-222222222--|

e|--------------------------------------|
B|--------------------------------------|
G|--------------------------------------| 2x
D|--88888888-99999999-1111111111111111--|
A|--66666666-77777777-9999999999999999--|
E|--------------------------------------|

e|--------------------------|------[1st]|--[2nd]|
B|--------------------------|-----------|-------|
G|--------------4-----------|-----------|-------| 2x
D|--2----6-44---4-22-66-44--|-----------|-------|
A|--2----6-44---2-22-66-44--|--6-4-2-4--|-------|
E|--0----4-22-----00-44-22--|-----------|--12\--|

e|---------------------------------------|--------------------------------------|
B|---------------------------------------|--------------------------------------|
G|--66666666-99999999--------------------|--66666666-99999999-1111111111111111--|
D|--66666666-99999999-99999999-44444444--|--66666666-99999999-1111111111111111--|
A|--44444444-77777777-99999999-44444444--|--44444444-77777777-9999999999999999--|
E|--------------------77777777-22222222--|--------------------------------------|






e|---------------|----------------|---------------------------------|--------------|
B|---------------|----------------|---------------------------------|--6-----------|
G|--8b10-----r9--|--8-6-----------|------6-----6-----6-----6-----6--|----8-6--8----|
D|---------------|---------8---6--|--6-8---6-8---6-8---6-8---6-8----|-------8------|
A|---------------|----------------|---------------------------------|--------------|
E|---------------|----------------|---------------------------------|--------------|


|--------------------|
|--------------------|
|--------------------|
|--6666666666666666--|
|--6666666666666666--|
|--4444444444444444--|


|---------------------------------------|--------------------------------------|
|---------------------------------------|--------------------------------------|
|--88888888-11111111--------------------|--88888888-11111111-------------------|
|--88888888-11111111-11111111-66666666--|--88888888-11111111-------------------|
|--66666666-99999999-11111111-66666666--|--66666666-99999999-6666666666666666--|
|--------------------99999999-44444444--|--------------------4444444444444444--|

e|------------------------------------|
B|------------------------------------|
G|--------------6---------------------| 2x
D|--4----8-66---6-44-88-66------------|
A|--4----8-66---4-44-88-66---8-6-4-6--|
E|--2----6-44-----22-66-44------------|