Misc. Unsigned Bands - Rockabunny - Love Me Tender Elvis Presley Cover Text Guitar Tab

Learn the song with the online tablature player
The first song Rockabunny produced, and the first one they covered. An excellent song
covered in a great way by Rockabunny. From rockabilly Elvis to Rockabunny :)
Should be correct (sure sounds it):

----------------------------|
---1-0-1-3---3-1-0---0-1----|
-0---------2-------2--------|           X2
----------------------------|
----------------------------|
----------------------------|

0-0-0-0-0-0-0--------0------|
--------------3-1-3---------|
----------------------------|
----------------------------|
----------------------------|
----------------------------|

-0-0-1-0---------0----------|
--------3---3-1-0--3-1------|
----------2-----------------|
----------------------------|
----------------------------|
----------------------------|

And thats it. Rockabunny usually do the middle part twice too but that is up to the player.