Misc. Unsigned Bands - Romantic Retards - What We Want Text Guitar Tab

Learn song with the online tabulature player
-----------------------------------------------------------------------------
                             ROMANTIC RETARDS - WHAT WE WANT
-----------------------------------------------------------------------------
Tabbed by:SPAZZ
Email:jimmy_eat_world_16@yahoo.com

Tuning:normal

e|----------------------------------------------------------------------------|
B|----------------------------------------------------------------------------|
G|----------------------------------------------------------------------------|
D|---0-0-0-0-0-0-0-0-0-0-0-0-0-0-0-0-0-0-0-0-0-0-0-0-0-0-0-0-0-0-0-0----------|
A|--5-5-5-5-5-5-5-5-7-7-7-7-7-7-7-7-9-9-9-9-9-9-9-9-7-7-7-7-7-7-7-7--x2-------|
E|----------------------------------------------------------------------------|

e|----------------------------------------------------------------------------|
B|----------------------------------------------------------------------------|
G|----------------------------------------------------------------------------|
D|-0-0-0-0-0-0-0-0---0-0-0-0-0-0-0-0---0-0-0-0-0-0-0-0---0-0-0-0-0-0-0-0------|
A|-5-5-5-5-5-5-5-5---7-7-7-7-7-7-7-7---9-9-9-9-9-9-9-9---7-7-7-7-7-7-7-7------|
E|-3-3-3-3-3-3-3-3-/-5-5-5-5-5-5-5-5-/-7-7-7-7-7-7-7-7-/-5-5-5-5-5-5-5-5------|