Misc. Unsigned Bands - Rooster Teeth Productions - Red Vs Blue Reconstruction Theme Text Guitar Tab

Learn the song with the online tablature player
X : Mute

----------------------------------------------------------|
----------------------------------------------------------|
----------------------------------------------------------|
-------2---0---------2--------------2--------0------------|
----0----3--------3-----3---0----------3--0---------------|
----------------------------------------------------------|

----------------------------------------------------------|
----------------------------------------------------------|
---2-2----------2-2---------------------------------------|
-----------------------------2--2----0-------2-2----------|
-------3-0----------3-0-----------3-------3--------3------|
----------------------------------------------------------|

----------------------------------------------------------|
----------------------------------------------------------|
----------------------------------------------------------|
--22X---22X---22X---22X---2-----2-2-----------------------|
--00X---00X---00X---00X---0---0-----3-0-X-----------------|
----------------------------------------------------------|