Misc. Unsigned Bands - Route 101 - Unpredictable Text Guitar Tab

Learn the song with the online tablature player
Route 101:unpredictable

intro

e|------------------------------------------------------------------------|
B|------------------------------------------------------------------------|
G|------------------------------------------------------------------------|
D|--------------------------------------------------x3--------------------|
A|-------------------------------------9----------------------------------|
E|--12-12-12-12-10-10-10-10-9-9-9-9-7--7------------------------------==--|

e|----------------------------------------------------------------------|
B|----------------------------------------------------------------------|
G|----------------------------------------------------------------------|
D|----------------------------------------------------------------------|
A|----------------------------------9-----------------------------------|
E|--12-12-12-12-10-10-10-9-9-9-9-7-9-7----------------------------------|

verse

e|-----------------------------------------------------------------|
B|-----------------------------------------------------------------|
G|---------------------------------7-7-7-7-7-7-7-7-----------------|
D|-2-2-2-2-2-2-2-2-5-5-5-5-5-5-5-5-7-7-7-7-7-7-7-7-7-7-7-7-7-7-7-7-|x2
A|-2-2-2-2-2-2-2-2-5-5-5-5-5-5-5-5-5-5-5-5-5-5-5-5-7-7-7-7-7-7-7-7-|
E|-0-0-0-0-0-0-0-0-3-3-3-3-3-3-3-3-----------------5-5-5-5-5-5-5-5-|

e------------------------------------------------------------------|
A------------------------------------------------------------------|
D----------------------------------7-7-7-7-7-7-7-7-----------------|
G--2-2-2-2-2-2-2-2-5-5-5-5-5-5-5-5-7-7-7-7-7-7-7-7-7-7-7-7-7-7-7-7-|
B--2-2-2-2-2-2-2-2-5-5-5-5-5-5-5-5-5-5-5-5-5-5-5-5-7-7-7-7-7-7-7-7-|
E--0-0-0-0-0-0-0-0-3-3-3-3-3-3-3-3-----------------5-5-5-5-5-5-5-5-|

chorus

e------------------------------------------------------|
A------------------------------------------------------|
D--7-7-7-7-7-7-------------5-5-5-5-5-5-4-4-4-4-4-4-----|
G--7-7-7-7-7-7-5-5-5-5-5-5-5-5-5-5-5-5-4-4-4-4-4-4-----|
B--5-5-5-5-5-5-5-5-5-5-5-5-3-3-3-3-3-3-2-2-2-2-2-2-----|
E--------------3-3-3-3-3-3-----------------------------|

lyrics

my voice sounds so empty/your resentful to me/you don't listen to a word i say/i don't
what gets me through the day/i don't know how much longer i can go/without going
my mind/without going insane/never mind/about me/coz i know you don't care/

chorus x2

life is unpredictable/you don't know what comes next/life is unpredictable/you don't
what to expect/the fellings that your gonna fell in the morning/

oh yeah how my life changes x2/in time yeah how my life changes/oh yeah how my life
time yeah how my life changes/oh yeah how my life chain changes

chorusx2