Misc. Unsigned Bands - Rs - Sugar In My Tea Yeah Text Guitar Tab

Learn the song with the online tablature player
SUGAR IN MY TEA (YEAH)
As performed by Roadkill Safari

Riff 1
e-------------------------------------------------|
b-------------------------------------------------|
g-------------------------------------------------|
d-------------------------------------------------|
a--10h12-12-10h12-12-10h12-12-11------------------|
E--10----10-10----10-10----10-9-------------------|

Bas riff 1
g-------------------------------------------------|
d-------------------------------------------------|
a-----12-12----12-12-------12---------------------|
E--10-------10-------10-------9~~-----------------|

Riff 2
e-------------------------------------------------|
b-------------------------------------------------|
g-------------------------------------------------|
d-------------------------------------------------|
a--9h11-11-9h11-11-9h11-11-10---------------------|
E--9----9--9----9--9----9--8----------------------|

Bas riff 2
g-------------------------------------------------|
d-------------------------------------------------|
a----11-11---11-11------11------------------------|
E--9-------9-------9-------8~~--------------------|

Riff 3
e-------------------------------------------------|
b-------------------------------------------------|
g-------------------------------------------------|
d-------------------------------------------------|
a-14~~---12-11------------------------------------|
E-12~~---10-9-----5^r-4^r-------------------------|

Bas Riff 3
g-------------------------------------------------|
d-------------------------------------------------|
a-------------------------------------------------|
E-12~~---10~9~----5^r-4^r-------------------------|