Misc. Unsigned Bands - Ryan Crosby-bedrock - Young Money Text Guitar Tab

Learn song with the online tabulature player
-------------------------------------------------------------------------------
                             Bedrock-Ryan Crosby/Young Money
-------------------------------------------------------------------------------
Tabbed by:Ryan Crosby
Email:privatery@gmail.com

Tuning:standard

e|--------------------------------------------------------------------------|
B|--------------------------------------------------------------------------|
G|-----------------------------7----7----7----7----7------------------------|
D|---6---8---6---8---6---8---6----8----8----8----8--------------------------|
A|--------------------------------------------------------------------------|
E|--------------------------------------------------------------------------|

e|--------------------------------------------------------------------------|
B|---8----8----6----6---------------------8---------------------------------|
G|-----8----8----7----7---8---5---8---5-------8---5---8---------------------|
D|--------------------------------------------------------------------------|
A|--------------------------------------------------------------------------|
E|--------------------------------------------------------------------------|