Misc. Unsigned Bands - Ryan Crosby - Shine Alone Text Guitar Tab

Learn the song with the online tablature player
|---------------------------|-----------------------------|
|----------0h1----------1---|---------------0-------------|
|---------------------------|--------------------0--------|
|-----2---------------------|-----------------------------|
|--0---------------0--------|---------2-------------------|
|---------------------------|----0------------------------|

|---------------------------|-----------------------------|
|----------1h3----------3---|------------3—1p0------------|
|---------------------------|--------------------0--------|
|-----2---------------------|-----------------------------|
|--3----------------3-------|--------2--------------------|
|---------------------------|----3------------------------|

The basic chords for the song are:
Am Em C G
Am Em C C