Misc. Unsigned Bands - Safet Isovic - Sehidski Rastanak Text Guitar Tab

Learn the song with the online tablature player
<<<

 >>>
Evo nesto za pocetnike.Ovo su dijelovi koji su vam potrebni da odsvirate citavu pjesmu.

E-----------------|-------------------|------------------------------|
B-----------------|-------------------|------------------------------|
G-----------------|-------------------|-------------0----------------|
D-----0--2--3--0--|-------0--2--3--0--|----0--2--3-----3-3-2-0-2-----|
A--4--------------|---0-4-------------|--4---------------------------|
E-----------------|-------------------|------------------------------|

E-----------------|
B-----------------|
G-----------------|
D--3--2--3--0--2--|
A-----------------|
E-----------------|

E-----------------|-----------------|
E-----------------|-----------------|
B-----------------|-----------------|
G--1----2----4----|--5--4--5--2--4--|
D-----------------|-----------------|
A-----------------|-----------------|

E-----------------|-----------------|
B-----------------|-----------------|
G--1----2----4----|--5--4--5--2--4--|
D-----------------|-----------------|
A-----------------|-----------------|
E-----------------|-----------------|

E--------------------------------------------------------------------|
B--------------------------------------------------------------------|
G--5-4-7-5-5-4-4-2-2-1-4-2-2-1---------------------------------------|
D------------------------------3-2-0-----2--3--2--3--0--2------------|
A--------------------------------------------------------------------|
E--------------------------------------------------------------------|

E--------------------------------|------------------------------------|
B--------------------------------|------------------------------------|
G--9----9----9---7--6--4--5--7---|----7----7----7---5--4--2--4--5-----|
D--------------------------------|------------------------------------|
A--------------------------------|------------------------------------|
E--------------------------------|------------------------------------|

E--------------------------------------------------------------------|
B--------------------------------------------------------------------|
G--5-4-7-5-5-4-4-2-2-1-4-2-2-1---------------------------------------|
D------------------------------3-2-0-----2--3--2--3--0--2------------|
A--------------------------------------------------------------------|
E--------------------------------------------------------------------|