Misc. Unsigned Bands - Sam Britt - Flow Text Guitar Tab

Learn the song with the online tablature player
                             FLOW - Sam Britt

INTRO
slow)
e|----------------------------------------------------------------------|---|
B|-0------0-----------------------------------------------3---1-0-------|---|
G|---0------0-2h4-2--0----------------0-0h2--0-2-4-4/5--5---------0-0h2-|---|
D|--(5)----------------4-0-2-0-2--2-4---------------------0-------------|---|
A|-------------------------0---0--------0----------0----------------0---|---|
E|----------------------------------------------------------------------|---|

PART A
   D  D  D U D    D  D  D U D    D  D  D U D  D  D  D U D
e|--------------------------------------------------------|-----------------|
B|--------------------------------------------------------|-----------------|
G|--------------------------------------------------------|-X 2-------------|
D|-2--2--2-2-2--4-0--0--0-0-0--0-0--0--0-0-0--0--0--0-0-0-|-----------------|
A|-0--0--0-0-0--0-3--3--3-3-3--2-2--2--2-2-2--2--2--2-2-2-|-----------------|
E|-0--0--0-0-0--0-0--0--0-0-0--0-3--3--3-3-3--3--3--3-3-3-|-----------------|

PART B
   D  D  D U D  D    D   D U D  D      D  D U D                 D U D
e|--------------------------------------------------------------------|-----|
B|--------------------------------------------------------------------|-----|
G|--------------------------------------------------------------------|-----|
D|--------------------------------------------------------------------|-----|
A|-0--0--0-0-0--0-0---0--0-0-0--0-0----0--0-0-0--0-0---0---0----0-0-0-|-----|
E|-3--3--3-3-3--3-3/5-5--5-5-5--7-7/8--8--8-8-8--8-8/7-7/5-5/3--3-3-3-|-----|

REPEAT PART A X2

PART C
   D  D  D U D    D  D  D U D     D  D  D U D  D  D  D U D
e|----------------------------------------------------------|---------------|
B|----------------------------------------------------------|---------------|
G|----------------------------------------------------------|-X2------------|
D|----------------------------------------------------------|---------------|
A|-0--0--0-0-0--2-3--3--3-3-3--2----------------------------|---------------|
E|--------------------------------3--3--3-3-3--3--3--3-3-3--|---------------|

PART D
e|-----------------------------------------------|--------------------------|
B|---0h1-----0h1-1h3-1-0h1----0h1----3--1--0-----|--------------------------|
G|--2---2---2-------------2--2---2--2--2--2---0--|-X2-----------------------|
D|-------------------------------------------2---|--------------------------|
A|-0-------0----------------0--------------------|--------------------------|
E|-----------------------------------------------|--------------------------|

PART E
e|-----------------------------------------------------|--------------------|
B|-----------------------------------------------------|--------------------|
G|---0-0----0-0----0-0---0-0----0-0----0-0----0-0----5-|-X4-----------------|
D|--2-2-2--3-3-3--3-3-3-3-3-3--2-2-2--3-3-3--3-3-3--2--|--------------------|
A|-3-3-3--5-5-5---------------3-3----5-5---------------|--------------------|
E|---------------5-5-5-5-5-5----------------5-5----0---|--------------------|

ON THE LAST TIME ADD THIS ENDING
e|---------------------------------------------------------------------------|
B|---------------------------------------------------------------------------|
G|-4-2--2/4\2----------------------------------------------------------------|
D|------5/7\5----------------------------------------------------------------|
A|------0--------------------------------------------------------------------|
E|------3/5\3----------------------------------------------------------------|

END

| D  Down Stroke
| U  Up Stroke
|(5) Optional Note
| /  slide up
| \  slide down
| h  hammer-on
| p  pull-off
| ~  vibrato
| +  harmonic
| x  Mute note