Misc. Unsigned Bands - Sam Respess - Put It In Your Mouth Theme Text Guitar Tab

Learn the song with the online tablature player
Intro

G#5  B  F#5  D#5

E----x-777---------x-----|
B----x-777---------x-----|
G----x-888---------x-888-|
D--6-x-999-x-4-x-4-x-888-|
A--6-x-999-x-4-x-4-x-666-|
E--4-x-777-x-2-x-2-x-----|

Verse

E------(7777)----------|    |-----(7777)----------|    |-------------|
B------(7777)----------|    |-----(7777)----------|    |-------------|
G------(8888)----------|    |-----(8888)----------|    |-------------|
D--6 66-9999-4444-8888-| x1 |-6666-9999-4444-8888-| x2 |-6666-9999-x-|
A--6-66-9999-4444-6666-|    |-6666-9999-4444-6666-|    |-6666-9999-x-|
E--4-44-7777-2222-6666-|    |-4444-7777-2222-6666-|    |-6666-9999-x-|
     pm -pm- -pm- -pm-           no palm mutes

    "Put it in your mouth..."

E----x-777---------x-----|
B----x-777---------x-----|
G----x-888---------x-888-|
D--6-x-999-x-4-x-4-x-888-|
A--6-x-999-x-4-x-4-x-666-|
E--4-x-777-x-2-x-2-x-----|

|   pm        palm mute
|   ~         let note ring
|   /         slide down
|   \         slide up
|   b         bend
|   x         mute note
|  (a number) optional